  0
SECTION
  2
HEADER
  9
$EXTMIN
 10
-0.4175
 20
-1.8822
 30
0.0000
  9
$EXTMAX
 10
5.6824045
 20
5.2040
 30
0.0000
  0
ENDSEC
  0
SECTION
  2
TABLES
  0
TABLE
  2
LTYPE
 70
3
  0
LTYPE
  2
BYBLOCK
 70
0
  3

 72
65
 73
0
 40
0.0000
  0
LTYPE
  2
BYLAYER
 70
0
  3

 72
65
 73
0
 40
0.0000
  0
LTYPE
  2
CONTINUOUS
 70
0
  3
Solid line
 72
65
 73
0
 40
0.0000
  0
ENDTAB
  0
TABLE
  2
LAYER
 70
1
  0
LAYER
  2
0
 70
0
 62
7
  6
CONTINUOUS
  0
LAYER
  2
MRF136A_DRD
 70
0
 62
7
  6
CONTINUOUS
  0
ENDTAB
  0
TABLE
  2
STYLE
 70
5
  0
STYLE
  2
STYLE_0
 70
0
 40
0.1640624
 41
1.0000
 50
0.0000
 71
0
 42
0.2500
  3
TXT
  0
STYLE
  2
STYLE_1
 70
0
 40
0.0492187
 41
1.0000
 50
0.0000
 71
0
 42
0.0750
  3
TXT
  0
STYLE
  2
STYLE_2
 70
0
 40
0.0492187
 41
1.0000
 50
0.0000
 71
0
 42
0.0750
  3
TXT
  0
STYLE
  2
STYLE_3
 70
0
 40
0.065625
 41
1.0000
 50
0.0000
 71
0
 42
0.1000
  3
TXT
  0
STYLE
  2
STYLE_4
 70
0
 40
0.1148437
 41
1.0000
 50
0.0000
 71
0
 42
0.1750
  3
TXT
  0
ENDTAB
  0
ENDSEC
  0
SECTION
  2
BLOCKS
  0
BLOCK
  2
ROUND_1
  3
ROUND_1
 70
64
 10
0.0000
 20
0.0000
 30
0.0000
  0
CIRCLE
  8
0
 10
0.0000
 20
0.0000
 30
0.0000
 40
0.0600
  0
ENDBLK
  0
BLOCK
  2
ROUND_31
  3
ROUND_31
 70
64
 10
0.0000
 20
0.0000
 30
0.0000
  0
CIRCLE
  8
0
 10
0.0000
 20
0.0000
 30
0.0000
 40
0.0040
  0
ENDBLK
  0
BLOCK
  2
ROUND_35
  3
ROUND_35
 70
64
 10
0.0000
 20
0.0000
 30
0.0000
  0
CIRCLE
  8
0
 10
0.0000
 20
0.0000
 30
0.0000
 40
0.0050
  0
ENDBLK
  0
ENDSEC
  0
SECTION
  2
ENTITIES
  0
POLYLINE
  8
MRF136A_DRD
 66
1
 10
0.0000
 20
0.0000
 30
0.0000
 40
0.0100
 41
0.0100
  0
VERTEX
  8
MRF136A_DRD
 10
2.2833
 20
-1.4694
 30
0.0000
  0
VERTEX
  8
MRF136A_DRD
 10
2.2389
 20
-1.4694
 30
0.0000
  0
VERTEX
  8
MRF136A_DRD
 10
2.2833
 20
-1.4250
 30
0.0000
  0
VERTEX
  8
MRF136A_DRD
 10
2.2833
 20
-1.4139
 30
0.0000
  0
VERTEX
  8
MRF136A_DRD
 10
2.2778
 20
-1.4028
 30
0.0000
  0
VERTEX
  8
MRF136A_DRD
 10
2.2444
 20
-1.4028
 30
0.0000
  0
VERTEX
  8
MRF136A_DRD
 10
2.2389
 20
-1.4139
 30
0.0000
  0
SEQEND
  0
POLYLINE
  8
MRF136A_DRD
 66
1
 10
0.0000
 20
0.0000
 30
0.0000
 40
0.0100
 41
0.0100
  0
VERTEX
  8
MRF136A_DRD
 10
2.2833
 20
-1.2972
 30
0.0000
  0
VERTEX
  8
MRF136A_DRD
 10
2.2389
 20
-1.2972
 30
0.0000
  0
VERTEX
  8
MRF136A_DRD
 10
2.2611
 20
-1.2528
 30
0.0000
  0
VERTEX
  8
MRF136A_DRD
 10
2.2722
 20
-1.2528
 30
0.0000
  0
VERTEX
  8
MRF136A_DRD
 10
2.2722
 20
-1.3194
 30
0.0000
  0
SEQEND
  0
POLYLINE
  8
MRF136A_DRD
 66
1
 10
0.0000
 20
0.0000
 30
0.0000
 40
0.0100
 41
0.0100
  0
VERTEX
  8
MRF136A_DRD
 10
0.4750
 20
-1.3194
 30
0.0000
  0
VERTEX
  8
MRF136A_DRD
 10
0.5084
 20
-1.2528
 30
0.0000
  0
VERTEX
  8
MRF136A_DRD
 10
0.4639
 20
-1.2528
 30
0.0000
  0
SEQEND
  0
POLYLINE
  8
MRF136A_DRD
 66
1
 10
0.0000
 20
0.0000
 30
0.0000
 40
0.0100
 41
0.0100
  0
VERTEX
  8
MRF136A_DRD
 10
0.4050
 20
-1.3194
 30
0.0000
  0
VERTEX
  8
MRF136A_DRD
 10
0.4384
 20
-1.2528
 30
0.0000
  0
VERTEX
  8
MRF136A_DRD
 10
0.3939
 20
-1.2528
 30
0.0000
  0
SEQEND
  0
POLYLINE
  8
MRF136A_DRD
 66
1
 10
0.0000
 20
0.0000
 30
0.0000
 40
0.0100
 41
0.0100
  0
VERTEX
  8
MRF136A_DRD
 10
0.3684
 20
-1.3194
 30
0.0000
  0
VERTEX
  8
MRF136A_DRD
 10
0.3461
 20
-1.3194
 30
0.0000
  0
SEQEND
  0
POLYLINE
  8
MRF136A_DRD
 66
1
 10
0.0000
 20
0.0000
 30
0.0000
 40
0.0100
 41
0.0100
  0
VERTEX
  8
MRF136A_DRD
 10
0.3572
 20
-1.3194
 30
0.0000
  0
VERTEX
  8
MRF136A_DRD
 10
0.3572
 20
-1.2528
 30
0.0000
  0
VERTEX
  8
MRF136A_DRD
 10
0.3461
 20
-1.2639
 30
0.0000
  0
SEQEND
  0
POLYLINE
  8
MRF136A_DRD
 66
1
 10
0.0000
 20
0.0000
 30
0.0000
 40
0.0100
 41
0.0100
  0
VERTEX
  8
MRF136A_DRD
 10
0.2984
 20
-1.3194
 30
0.0000
  0
VERTEX
  8
MRF136A_DRD
 10
0.3095
 20
-1.3194
 30
0.0000
  0
VERTEX
  8
MRF136A_DRD
 10
0.3095
 20
-1.3083
 30
0.0000
  0
VERTEX
  8
MRF136A_DRD
 10
0.2984
 20
-1.3083
 30
0.0000
  0
VERTEX
  8
MRF136A_DRD
 10
0.2984
 20
-1.3194
 30
0.0000
  0
SEQEND
  0
POLYLINE
  8
MRF136A_DRD
 66
1
 10
0.0000
 20
0.0000
 30
0.0000
 40
0.0100
 41
0.0100
  0
VERTEX
  8
MRF136A_DRD
 10
0.2339
 20
-1.3194
 30
0.0000
  0
VERTEX
  8
MRF136A_DRD
 10
0.2228
 20
-1.3083
 30
0.0000
  0
VERTEX
  8
MRF136A_DRD
 10
0.2173
 20
-1.2972
 30
0.0000
  0
VERTEX
  8
MRF136A_DRD
 10
0.2173
 20
-1.2750
 30
0.0000
  0
VERTEX
  8
MRF136A_DRD
 10
0.2228
 20
-1.2639
 30
0.0000
  0
VERTEX
  8
MRF136A_DRD
 10
0.2339
 20
-1.2528
 30
0.0000
  0
VERTEX
  8
MRF136A_DRD
 10
0.2450
 20
-1.2528
 30
0.0000
  0
VERTEX
  8
MRF136A_DRD
 10
0.2561
 20
-1.2639
 30
0.0000
  0
VERTEX
  8
MRF136A_DRD
 10
0.2617
 20
-1.2750
 30
0.0000
  0
VERTEX
  8
MRF136A_DRD
 10
0.2617
 20
-1.2972
 30
0.0000
  0
VERTEX
  8
MRF136A_DRD
 10
0.2561
 20
-1.3083
 30
0.0000
  0
VERTEX
  8
MRF136A_DRD
 10
0.2450
 20
-1.3194
 30
0.0000
  0
VERTEX
  8
MRF136A_DRD
 10
0.2339
 20
-1.3194
 30
0.0000
  0
SEQEND
  0
POLYLINE
  8
MRF136A_DRD
 66
1
 10
0.0000
 20
0.0000
 30
0.0000
 40
0.0100
 41
0.0100
  0
VERTEX
  8
MRF136A_DRD
 10
2.2444
 20
-1.1361
 30
0.0000
  0
VERTEX
  8
MRF136A_DRD
 10
2.2778
 20
-1.1361
 30
0.0000
  0
VERTEX
  8
MRF136A_DRD
 10
2.2833
 20
-1.1472
 30
0.0000
  0
VERTEX
  8
MRF136A_DRD
 10
2.2833
 20
-1.1583
 30
0.0000
  0
VERTEX
  8
MRF136A_DRD
 10
2.2778
 20
-1.1694
 30
0.0000
  0
VERTEX
  8
MRF136A_DRD
 10
2.2444
 20
-1.1694
 30
0.0000
  0
VERTEX
  8
MRF136A_DRD
 10
2.2389
 20
-1.1583
 30
0.0000
  0
VERTEX
  8
MRF136A_DRD
 10
2.2389
 20
-1.1472
 30
0.0000
  0
VERTEX
  8
MRF136A_DRD
 10
2.2611
 20
-1.1028
 30
0.0000
  0
SEQEND
  0
POLYLINE
  8
MRF136A_DRD
 66
1
 10
0.0000
 20
0.0000
 30
0.0000
 40
0.0100
 41
0.0100
  0
VERTEX
  8
MRF136A_DRD
 10
3.1237
 20
-0.8083
 30
0.0000
  0
VERTEX
  8
MRF136A_DRD
 10
3.0737
 20
-0.8083
 30
0.0000
  0
SEQEND
  0
POLYLINE
  8
MRF136A_DRD
 66
1
 10
0.0000
 20
0.0000
 30
0.0000
 40
0.0100
 41
0.0100
  0
VERTEX
  8
MRF136A_DRD
 10
3.1404
 20
-0.8583
 30
0.0000
  0
VERTEX
  8
MRF136A_DRD
 10
3.0737
 20
-0.8583
 30
0.0000
  0
VERTEX
  8
MRF136A_DRD
 10
3.0737
 20
-0.7583
 30
0.0000
  0
VERTEX
  8
MRF136A_DRD
 10
3.1404
 20
-0.7583
 30
0.0000
  0
SEQEND
  0
POLYLINE
  8
MRF136A_DRD
 66
1
 10
0.0000
 20
0.0000
 30
0.0000
 40
0.0100
 41
0.0100
  0
VERTEX
  8
MRF136A_DRD
 10
3.0121
 20
-0.8583
 30
0.0000
  0
VERTEX
  8
MRF136A_DRD
 10
3.0121
 20
-0.7583
 30
0.0000
  0
SEQEND
  0
POLYLINE
  8
MRF136A_DRD
 66
1
 10
0.0000
 20
0.0000
 30
0.0000
 40
0.0100
 41
0.0100
  0
VERTEX
  8
MRF136A_DRD
 10
3.0454
 20
-0.7583
 30
0.0000
  0
VERTEX
  8
MRF136A_DRD
 10
2.9787
 20
-0.7583
 30
0.0000
  0
SEQEND
  0
POLYLINE
  8
MRF136A_DRD
 66
1
 10
0.0000
 20
0.0000
 30
0.0000
 40
0.0100
 41
0.0100
  0
VERTEX
  8
MRF136A_DRD
 10
2.8920
 20
-0.8583
 30
0.0000
  0
VERTEX
  8
MRF136A_DRD
 10
2.8837
 20
-0.8417
 30
0.0000
  0
VERTEX
  8
MRF136A_DRD
 10
2.8837
 20
-0.7750
 30
0.0000
  0
VERTEX
  8
MRF136A_DRD
 10
2.8921
 20
-0.7583
 30
0.0000
  0
SEQEND
  0
POLYLINE
  8
MRF136A_DRD
 66
1
 10
0.0000
 20
0.0000
 30
0.0000
 40
0.0100
 41
0.0100
  0
VERTEX
  8
MRF136A_DRD
 10
2.8920
 20
-0.7583
 30
0.0000
  0
VERTEX
  8
MRF136A_DRD
 10
2.9421
 20
-0.7583
 30
0.0000
  0
SEQEND
  0
POLYLINE
  8
MRF136A_DRD
 66
1
 10
0.0000
 20
0.0000
 30
0.0000
 40
0.0100
 41
0.0100
  0
VERTEX
  8
MRF136A_DRD
 10
2.9420
 20
-0.7583
 30
0.0000
  0
VERTEX
  8
MRF136A_DRD
 10
2.9504
 20
-0.7750
 30
0.0000
  0
VERTEX
  8
MRF136A_DRD
 10
2.9504
 20
-0.8417
 30
0.0000
  0
VERTEX
  8
MRF136A_DRD
 10
2.9421
 20
-0.8583
 30
0.0000
  0
SEQEND
  0
POLYLINE
  8
MRF136A_DRD
 66
1
 10
0.0000
 20
0.0000
 30
0.0000
 40
0.0100
 41
0.0100
  0
VERTEX
  8
MRF136A_DRD
 10
2.9420
 20
-0.8583
 30
0.0000
  0
VERTEX
  8
MRF136A_DRD
 10
2.8921
 20
-0.8583
 30
0.0000
  0
SEQEND
  0
POLYLINE
  8
MRF136A_DRD
 66
1
 10
0.0000
 20
0.0000
 30
0.0000
 40
0.0100
 41
0.0100
  0
VERTEX
  8
MRF136A_DRD
 10
2.8554
 20
-0.7583
 30
0.0000
  0
VERTEX
  8
MRF136A_DRD
 10
2.8554
 20
-0.8583
 30
0.0000
  0
VERTEX
  8
MRF136A_DRD
 10
2.8387
 20
-0.8417
 30
0.0000
  0
VERTEX
  8
MRF136A_DRD
 10
2.8054
 20
-0.7750
 30
0.0000
  0
VERTEX
  8
MRF136A_DRD
 10
2.7887
 20
-0.7583
 30
0.0000
  0
VERTEX
  8
MRF136A_DRD
 10
2.7887
 20
-0.8583
 30
0.0000
  0
SEQEND
  0
POLYLINE
  8
MRF136A_DRD
 66
1
 10
0.0000
 20
0.0000
 30
0.0000
 40
0.0100
 41
0.0100
  0
VERTEX
  8
MRF136A_DRD
 10
2.2050
 20
-0.8583
 30
0.0000
  0
VERTEX
  8
MRF136A_DRD
 10
2.2050
 20
-0.8083
 30
0.0000
  0
SEQEND
  0
POLYLINE
  8
MRF136A_DRD
 66
1
 10
0.0000
 20
0.0000
 30
0.0000
 40
0.0100
 41
0.0100
  0
VERTEX
  8
MRF136A_DRD
 10
2.2383
 20
-0.7583
 30
0.0000
  0
VERTEX
  8
MRF136A_DRD
 10
2.2133
 20
-0.8083
 30
0.0000
  0
VERTEX
  8
MRF136A_DRD
 10
2.1967
 20
-0.8083
 30
0.0000
  0
SEQEND
  0
POLYLINE
  8
MRF136A_DRD
 66
1
 10
0.0000
 20
0.0000
 30
0.0000
 40
0.0100
 41
0.0100
  0
VERTEX
  8
MRF136A_DRD
 10
2.1966
 20
-0.8083
 30
0.0000
  0
VERTEX
  8
MRF136A_DRD
 10
2.1717
 20
-0.7583
 30
0.0000
  0
SEQEND
  0
POLYLINE
  8
MRF136A_DRD
 66
1
 10
0.0000
 20
0.0000
 30
0.0000
 40
0.0100
 41
0.0100
  0
VERTEX
  8
MRF136A_DRD
 10
2.1100
 20
-0.8583
 30
0.0000
  0
VERTEX
  8
MRF136A_DRD
 10
2.1100
 20
-0.7583
 30
0.0000
  0
SEQEND
  0
POLYLINE
  8
MRF136A_DRD
 66
1
 10
0.0000
 20
0.0000
 30
0.0000
 40
0.0100
 41
0.0100
  0
VERTEX
  8
MRF136A_DRD
 10
2.1433
 20
-0.7583
 30
0.0000
  0
VERTEX
  8
MRF136A_DRD
 10
2.0767
 20
-0.7583
 30
0.0000
  0
SEQEND
  0
POLYLINE
  8
MRF136A_DRD
 66
1
 10
0.0000
 20
0.0000
 30
0.0000
 40
0.0100
 41
0.0100
  0
VERTEX
  8
MRF136A_DRD
 10
2.0150
 20
-0.8250
 30
0.0000
  0
VERTEX
  8
MRF136A_DRD
 10
2.0483
 20
-0.8583
 30
0.0000
  0
SEQEND
  0
POLYLINE
  8
MRF136A_DRD
 66
1
 10
0.0000
 20
0.0000
 30
0.0000
 40
0.0100
 41
0.0100
  0
VERTEX
  8
MRF136A_DRD
 10
1.9816
 20
-0.8417
 30
0.0000
  0
VERTEX
  8
MRF136A_DRD
 10
1.9900
 20
-0.8583
 30
0.0000
  0
VERTEX
  8
MRF136A_DRD
 10
2.0233
 20
-0.8583
 30
0.0000
  0
VERTEX
  8
MRF136A_DRD
 10
2.0316
 20
-0.8417
 30
0.0000
  0
VERTEX
  8
MRF136A_DRD
 10
2.0483
 20
-0.8250
 30
0.0000
  0
VERTEX
  8
MRF136A_DRD
 10
2.0483
 20
-0.7750
 30
0.0000
  0
VERTEX
  8
MRF136A_DRD
 10
2.0400
 20
-0.7583
 30
0.0000
  0
VERTEX
  8
MRF136A_DRD
 10
1.9900
 20
-0.7583
 30
0.0000
  0
VERTEX
  8
MRF136A_DRD
 10
1.9817
 20
-0.7750
 30
0.0000
  0
SEQEND
  0
POLYLINE
  8
MRF136A_DRD
 66
1
 10
0.0000
 20
0.0000
 30
0.0000
 40
0.0100
 41
0.0100
  0
VERTEX
  8
MRF136A_DRD
 10
1.9816
 20
-0.7750
 30
0.0000
  0
VERTEX
  8
MRF136A_DRD
 10
1.9817
 20
-0.8417
 30
0.0000
  0
SEQEND
  0
POLYLINE
  8
MRF136A_DRD
 66
1
 10
0.0000
 20
0.0000
 30
0.0000
 40
0.0100
 41
0.0100
  0
VERTEX
  8
MRF136A_DRD
 10
1.5533
 20
-0.8583
 30
0.0000
  0
VERTEX
  8
MRF136A_DRD
 10
1.4950
 20
-0.8583
 30
0.0000
  0
VERTEX
  8
MRF136A_DRD
 10
1.4950
 20
-0.7583
 30
0.0000
  0
SEQEND
  0
POLYLINE
  8
MRF136A_DRD
 66
1
 10
0.0000
 20
0.0000
 30
0.0000
 40
0.0100
 41
0.0100
  0
VERTEX
  8
MRF136A_DRD
 10
1.4083
 20
-0.8583
 30
0.0000
  0
VERTEX
  8
MRF136A_DRD
 10
1.4000
 20
-0.8417
 30
0.0000
  0
VERTEX
  8
MRF136A_DRD
 10
1.4000
 20
-0.7750
 30
0.0000
  0
VERTEX
  8
MRF136A_DRD
 10
1.4083
 20
-0.7583
 30
0.0000
  0
VERTEX
  8
MRF136A_DRD
 10
1.4583
 20
-0.7583
 30
0.0000
  0
VERTEX
  8
MRF136A_DRD
 10
1.4667
 20
-0.7750
 30
0.0000
  0
VERTEX
  8
MRF136A_DRD
 10
1.4667
 20
-0.8417
 30
0.0000
  0
VERTEX
  8
MRF136A_DRD
 10
1.4583
 20
-0.8583
 30
0.0000
  0
VERTEX
  8
MRF136A_DRD
 10
1.4083
 20
-0.8583
 30
0.0000
  0
SEQEND
  0
POLYLINE
  8
MRF136A_DRD
 66
1
 10
0.0000
 20
0.0000
 30
0.0000
 40
0.0100
 41
0.0100
  0
VERTEX
  8
MRF136A_DRD
 10
1.3383
 20
-0.8583
 30
0.0000
  0
VERTEX
  8
MRF136A_DRD
 10
1.3383
 20
-0.7583
 30
0.0000
  0
SEQEND
  0
POLYLINE
  8
MRF136A_DRD
 66
1
 10
0.0000
 20
0.0000
 30
0.0000
 40
0.0100
 41
0.0100
  0
VERTEX
  8
MRF136A_DRD
 10
1.3717
 20
-0.7583
 30
0.0000
  0
VERTEX
  8
MRF136A_DRD
 10
1.3050
 20
-0.7583
 30
0.0000
  0
SEQEND
  0
POLYLINE
  8
MRF136A_DRD
 66
1
 10
0.0000
 20
0.0000
 30
0.0000
 40
0.0100
 41
0.0100
  0
VERTEX
  8
MRF136A_DRD
 10
0.7712
 20
-0.8583
 30
0.0000
  0
VERTEX
  8
MRF136A_DRD
 10
0.7712
 20
-0.7583
 30
0.0000
  0
VERTEX
  8
MRF136A_DRD
 10
0.7545
 20
-0.7750
 30
0.0000
  0
VERTEX
  8
MRF136A_DRD
 10
0.7379
 20
-0.8083
 30
0.0000
  0
VERTEX
  8
MRF136A_DRD
 10
0.7212
 20
-0.7750
 30
0.0000
  0
VERTEX
  8
MRF136A_DRD
 10
0.7046
 20
-0.7583
 30
0.0000
  0
SEQEND
  0
POLYLINE
  8
MRF136A_DRD
 66
1
 10
0.0000
 20
0.0000
 30
0.0000
 40
0.0100
 41
0.0100
  0
VERTEX
  8
MRF136A_DRD
 10
0.7045
 20
-0.7583
 30
0.0000
  0
VERTEX
  8
MRF136A_DRD
 10
0.7046
 20
-0.8583
 30
0.0000
  0
SEQEND
  0
POLYLINE
  8
MRF136A_DRD
 66
1
 10
0.0000
 20
0.0000
 30
0.0000
 40
0.0100
 41
0.0100
  0
VERTEX
  8
MRF136A_DRD
 10
0.6762
 20
-0.8250
 30
0.0000
  0
VERTEX
  8
MRF136A_DRD
 10
0.6096
 20
-0.8250
 30
0.0000
  0
SEQEND
  0
POLYLINE
  8
MRF136A_DRD
 66
1
 10
0.0000
 20
0.0000
 30
0.0000
 40
0.0100
 41
0.0100
  0
VERTEX
  8
MRF136A_DRD
 10
0.6762
 20
-0.8583
 30
0.0000
  0
VERTEX
  8
MRF136A_DRD
 10
0.6762
 20
-0.8083
 30
0.0000
  0
VERTEX
  8
MRF136A_DRD
 10
0.6512
 20
-0.7583
 30
0.0000
  0
VERTEX
  8
MRF136A_DRD
 10
0.6346
 20
-0.7583
 30
0.0000
  0
SEQEND
  0
POLYLINE
  8
MRF136A_DRD
 66
1
 10
0.0000
 20
0.0000
 30
0.0000
 40
0.0100
 41
0.0100
  0
VERTEX
  8
MRF136A_DRD
 10
0.6345
 20
-0.7583
 30
0.0000
  0
VERTEX
  8
MRF136A_DRD
 10
0.6096
 20
-0.8083
 30
0.0000
  0
SEQEND
  0
POLYLINE
  8
MRF136A_DRD
 66
1
 10
0.0000
 20
0.0000
 30
0.0000
 40
0.0100
 41
0.0100
  0
VERTEX
  8
MRF136A_DRD
 10
0.6095
 20
-0.8083
 30
0.0000
  0
VERTEX
  8
MRF136A_DRD
 10
0.6096
 20
-0.8583
 30
0.0000
  0
SEQEND
  0
POLYLINE
  8
MRF136A_DRD
 66
1
 10
0.0000
 20
0.0000
 30
0.0000
 40
0.0100
 41
0.0100
  0
VERTEX
  8
MRF136A_DRD
 10
0.5812
 20
-0.8583
 30
0.0000
  0
VERTEX
  8
MRF136A_DRD
 10
0.5479
 20
-0.8583
 30
0.0000
  0
SEQEND
  0
POLYLINE
  8
MRF136A_DRD
 66
1
 10
0.0000
 20
0.0000
 30
0.0000
 40
0.0100
 41
0.0100
  0
VERTEX
  8
MRF136A_DRD
 10
0.5646
 20
-0.8583
 30
0.0000
  0
VERTEX
  8
MRF136A_DRD
 10
0.5646
 20
-0.7583
 30
0.0000
  0
SEQEND
  0
POLYLINE
  8
MRF136A_DRD
 66
1
 10
0.0000
 20
0.0000
 30
0.0000
 40
0.0100
 41
0.0100
  0
VERTEX
  8
MRF136A_DRD
 10
0.5812
 20
-0.7583
 30
0.0000
  0
VERTEX
  8
MRF136A_DRD
 10
0.5479
 20
-0.7583
 30
0.0000
  0
SEQEND
  0
POLYLINE
  8
MRF136A_DRD
 66
1
 10
0.0000
 20
0.0000
 30
0.0000
 40
0.0100
 41
0.0100
  0
VERTEX
  8
MRF136A_DRD
 10
0.4446
 20
-0.8583
 30
0.0000
  0
VERTEX
  8
MRF136A_DRD
 10
0.4446
 20
-0.7583
 30
0.0000
  0
SEQEND
  0
POLYLINE
  8
MRF136A_DRD
 66
1
 10
0.0000
 20
0.0000
 30
0.0000
 40
0.0100
 41
0.0100
  0
VERTEX
  8
MRF136A_DRD
 10
0.4362
 20
-0.8583
 30
0.0000
  0
VERTEX
  8
MRF136A_DRD
 10
0.4862
 20
-0.8583
 30
0.0000
  0
VERTEX
  8
MRF136A_DRD
 10
0.5029
 20
-0.8250
 30
0.0000
  0
VERTEX
  8
MRF136A_DRD
 10
0.5029
 20
-0.7917
 30
0.0000
  0
VERTEX
  8
MRF136A_DRD
 10
0.4862
 20
-0.7583
 30
0.0000
  0
VERTEX
  8
MRF136A_DRD
 10
0.4362
 20
-0.7583
 30
0.0000
  0
SEQEND
  0
POLYLINE
  8
MRF136A_DRD
 66
1
 10
0.0000
 20
0.0000
 30
0.0000
 40
0.0100
 41
0.0100
  0
VERTEX
  8
MRF136A_DRD
 10
2.1562
 20
-0.6583
 30
0.0000
  0
VERTEX
  8
MRF136A_DRD
 10
2.1562
 20
-0.5583
 30
0.0000
  0
SEQEND
  0
POLYLINE
  8
MRF136A_DRD
 66
1
 10
0.0000
 20
0.0000
 30
0.0000
 40
0.0100
 41
0.0100
  0
VERTEX
  8
MRF136A_DRD
 10
2.1895
 20
-0.5583
 30
0.0000
  0
VERTEX
  8
MRF136A_DRD
 10
2.1229
 20
-0.5583
 30
0.0000
  0
SEQEND
  0
POLYLINE
  8
MRF136A_DRD
 66
1
 10
0.0000
 20
0.0000
 30
0.0000
 40
0.0100
 41
0.0100
  0
VERTEX
  8
MRF136A_DRD
 10
2.0695
 20
-0.6083
 30
0.0000
  0
VERTEX
  8
MRF136A_DRD
 10
2.0945
 20
-0.6583
 30
0.0000
  0
SEQEND
  0
POLYLINE
  8
MRF136A_DRD
 66
1
 10
0.0000
 20
0.0000
 30
0.0000
 40
0.0100
 41
0.0100
  0
VERTEX
  8
MRF136A_DRD
 10
2.0279
 20
-0.6083
 30
0.0000
  0
VERTEX
  8
MRF136A_DRD
 10
2.0779
 20
-0.6083
 30
0.0000
  0
VERTEX
  8
MRF136A_DRD
 10
2.0945
 20
-0.5917
 30
0.0000
  0
VERTEX
  8
MRF136A_DRD
 10
2.0945
 20
-0.5750
 30
0.0000
  0
VERTEX
  8
MRF136A_DRD
 10
2.0779
 20
-0.5583
 30
0.0000
  0
VERTEX
  8
MRF136A_DRD
 10
2.0279
 20
-0.5583
 30
0.0000
  0
VERTEX
  8
MRF136A_DRD
 10
2.0279
 20
-0.6583
 30
0.0000
  0
SEQEND
  0
POLYLINE
  8
MRF136A_DRD
 66
1
 10
0.0000
 20
0.0000
 30
0.0000
 40
0.0100
 41
0.0100
  0
VERTEX
  8
MRF136A_DRD
 10
1.9995
 20
-0.6250
 30
0.0000
  0
VERTEX
  8
MRF136A_DRD
 10
1.9329
 20
-0.6250
 30
0.0000
  0
SEQEND
  0
POLYLINE
  8
MRF136A_DRD
 66
1
 10
0.0000
 20
0.0000
 30
0.0000
 40
0.0100
 41
0.0100
  0
VERTEX
  8
MRF136A_DRD
 10
1.9995
 20
-0.6583
 30
0.0000
  0
VERTEX
  8
MRF136A_DRD
 10
1.9995
 20
-0.6083
 30
0.0000
  0
VERTEX
  8
MRF136A_DRD
 10
1.9745
 20
-0.5583
 30
0.0000
  0
VERTEX
  8
MRF136A_DRD
 10
1.9579
 20
-0.5583
 30
0.0000
  0
VERTEX
  8
MRF136A_DRD
 10
1.9329
 20
-0.6083
 30
0.0000
  0
VERTEX
  8
MRF136A_DRD
 10
1.9329
 20
-0.6583
 30
0.0000
  0
SEQEND
  0
POLYLINE
  8
MRF136A_DRD
 66
1
 10
0.0000
 20
0.0000
 30
0.0000
 40
0.0100
 41
0.0100
  0
VERTEX
  8
MRF136A_DRD
 10
1.9045
 20
-0.6083
 30
0.0000
  0
VERTEX
  8
MRF136A_DRD
 10
1.8379
 20
-0.6083
 30
0.0000
  0
SEQEND
  0
POLYLINE
  8
MRF136A_DRD
 66
1
 10
0.0000
 20
0.0000
 30
0.0000
 40
0.0100
 41
0.0100
  0
VERTEX
  8
MRF136A_DRD
 10
1.9045
 20
-0.6583
 30
0.0000
  0
VERTEX
  8
MRF136A_DRD
 10
1.9045
 20
-0.5583
 30
0.0000
  0
SEQEND
  0
POLYLINE
  8
MRF136A_DRD
 66
1
 10
0.0000
 20
0.0000
 30
0.0000
 40
0.0100
 41
0.0100
  0
VERTEX
  8
MRF136A_DRD
 10
1.8379
 20
-0.6583
 30
0.0000
  0
VERTEX
  8
MRF136A_DRD
 10
1.8379
 20
-0.5583
 30
0.0000
  0
SEQEND
  0
POLYLINE
  8
MRF136A_DRD
 66
1
 10
0.0000
 20
0.0000
 30
0.0000
 40
0.0100
 41
0.0100
  0
VERTEX
  8
MRF136A_DRD
 10
1.8095
 20
-0.6417
 30
0.0000
  0
VERTEX
  8
MRF136A_DRD
 10
1.8012
 20
-0.6583
 30
0.0000
  0
VERTEX
  8
MRF136A_DRD
 10
1.7512
 20
-0.6583
 30
0.0000
  0
VERTEX
  8
MRF136A_DRD
 10
1.7429
 20
-0.6417
 30
0.0000
  0
VERTEX
  8
MRF136A_DRD
 10
1.7429
 20
-0.5750
 30
0.0000
  0
VERTEX
  8
MRF136A_DRD
 10
1.7512
 20
-0.5583
 30
0.0000
  0
VERTEX
  8
MRF136A_DRD
 10
1.8012
 20
-0.5583
 30
0.0000
  0
VERTEX
  8
MRF136A_DRD
 10
1.8095
 20
-0.5750
 30
0.0000
  0
SEQEND
  0
POLYLINE
  8
MRF136A_DRD
 66
1
 10
0.0000
 20
0.0000
 30
0.0000
 40
0.0100
 41
0.0100
  0
VERTEX
  8
MRF136A_DRD
 10
1.5820
 20
-0.6583
 30
0.0000
  0
VERTEX
  8
MRF136A_DRD
 10
1.5237
 20
-0.6583
 30
0.0000
  0
VERTEX
  8
MRF136A_DRD
 10
1.5237
 20
-0.5583
 30
0.0000
  0
SEQEND
  0
POLYLINE
  8
MRF136A_DRD
 66
1
 10
0.0000
 20
0.0000
 30
0.0000
 40
0.0100
 41
0.0100
  0
VERTEX
  8
MRF136A_DRD
 10
1.4954
 20
-0.6583
 30
0.0000
  0
VERTEX
  8
MRF136A_DRD
 10
1.4371
 20
-0.6583
 30
0.0000
  0
VERTEX
  8
MRF136A_DRD
 10
1.4371
 20
-0.5583
 30
0.0000
  0
SEQEND
  0
POLYLINE
  8
MRF136A_DRD
 66
1
 10
0.0000
 20
0.0000
 30
0.0000
 40
0.0100
 41
0.0100
  0
VERTEX
  8
MRF136A_DRD
 10
1.4087
 20
-0.6583
 30
0.0000
  0
VERTEX
  8
MRF136A_DRD
 10
1.3754
 20
-0.6583
 30
0.0000
  0
SEQEND
  0
POLYLINE
  8
MRF136A_DRD
 66
1
 10
0.0000
 20
0.0000
 30
0.0000
 40
0.0100
 41
0.0100
  0
VERTEX
  8
MRF136A_DRD
 10
1.3921
 20
-0.6583
 30
0.0000
  0
VERTEX
  8
MRF136A_DRD
 10
1.3921
 20
-0.5583
 30
0.0000
  0
SEQEND
  0
POLYLINE
  8
MRF136A_DRD
 66
1
 10
0.0000
 20
0.0000
 30
0.0000
 40
0.0100
 41
0.0100
  0
VERTEX
  8
MRF136A_DRD
 10
1.4087
 20
-0.5583
 30
0.0000
  0
VERTEX
  8
MRF136A_DRD
 10
1.3754
 20
-0.5583
 30
0.0000
  0
SEQEND
  0
POLYLINE
  8
MRF136A_DRD
 66
1
 10
0.0000
 20
0.0000
 30
0.0000
 40
0.0100
 41
0.0100
  0
VERTEX
  8
MRF136A_DRD
 10
1.3054
 20
-0.6083
 30
0.0000
  0
VERTEX
  8
MRF136A_DRD
 10
1.3304
 20
-0.6583
 30
0.0000
  0
SEQEND
  0
POLYLINE
  8
MRF136A_DRD
 66
1
 10
0.0000
 20
0.0000
 30
0.0000
 40
0.0100
 41
0.0100
  0
VERTEX
  8
MRF136A_DRD
 10
1.2637
 20
-0.6083
 30
0.0000
  0
VERTEX
  8
MRF136A_DRD
 10
1.3137
 20
-0.6083
 30
0.0000
  0
VERTEX
  8
MRF136A_DRD
 10
1.3304
 20
-0.5917
 30
0.0000
  0
VERTEX
  8
MRF136A_DRD
 10
1.3304
 20
-0.5750
 30
0.0000
  0
VERTEX
  8
MRF136A_DRD
 10
1.3137
 20
-0.5583
 30
0.0000
  0
VERTEX
  8
MRF136A_DRD
 10
1.2638
 20
-0.5583
 30
0.0000
  0
SEQEND
  0
POLYLINE
  8
MRF136A_DRD
 66
1
 10
0.0000
 20
0.0000
 30
0.0000
 40
0.0100
 41
0.0100
  0
VERTEX
  8
MRF136A_DRD
 10
1.2637
 20
-0.5583
 30
0.0000
  0
VERTEX
  8
MRF136A_DRD
 10
1.2638
 20
-0.6583
 30
0.0000
  0
SEQEND
  0
POLYLINE
  8
MRF136A_DRD
 66
1
 10
0.0000
 20
0.0000
 30
0.0000
 40
0.0100
 41
0.0100
  0
VERTEX
  8
MRF136A_DRD
 10
1.1771
 20
-0.6583
 30
0.0000
  0
VERTEX
  8
MRF136A_DRD
 10
1.1771
 20
-0.5583
 30
0.0000
  0
SEQEND
  0
POLYLINE
  8
MRF136A_DRD
 66
1
 10
0.0000
 20
0.0000
 30
0.0000
 40
0.0100
 41
0.0100
  0
VERTEX
  8
MRF136A_DRD
 10
1.1687
 20
-0.6583
 30
0.0000
  0
VERTEX
  8
MRF136A_DRD
 10
1.2187
 20
-0.6583
 30
0.0000
  0
VERTEX
  8
MRF136A_DRD
 10
1.2354
 20
-0.6250
 30
0.0000
  0
VERTEX
  8
MRF136A_DRD
 10
1.2354
 20
-0.5917
 30
0.0000
  0
VERTEX
  8
MRF136A_DRD
 10
1.2187
 20
-0.5583
 30
0.0000
  0
VERTEX
  8
MRF136A_DRD
 10
1.1688
 20
-0.5583
 30
0.0000
  0
SEQEND
  0
POLYLINE
  8
MRF136A_DRD
 66
1
 10
0.0000
 20
0.0000
 30
0.0000
 40
0.0100
 41
0.0100
  0
VERTEX
  8
MRF136A_DRD
 10
4.6990
 20
-1.0524
 30
0.0000
  0
VERTEX
  8
MRF136A_DRD
 10
4.6990
 20
-1.0274
 30
0.0000
  0
VERTEX
  8
MRF136A_DRD
 10
4.6949
 20
-1.0190
 30
0.0000
  0
VERTEX
  8
MRF136A_DRD
 10
4.6699
 20
-1.0190
 30
0.0000
  0
VERTEX
  8
MRF136A_DRD
 10
4.6699
 20
-1.0524
 30
0.0000
  0
SEQEND
  0
POLYLINE
  8
MRF136A_DRD
 66
1
 10
0.0000
 20
0.0000
 30
0.0000
 40
0.0100
 41
0.0100
  0
VERTEX
  8
MRF136A_DRD
 10
4.6165
 20
-1.0524
 30
0.0000
  0
VERTEX
  8
MRF136A_DRD
 10
4.6124
 20
-1.0440
 30
0.0000
  0
VERTEX
  8
MRF136A_DRD
 10
4.6124
 20
-1.0274
 30
0.0000
  0
VERTEX
  8
MRF136A_DRD
 10
4.6165
 20
-1.0190
 30
0.0000
  0
VERTEX
  8
MRF136A_DRD
 10
4.6415
 20
-1.0190
 30
0.0000
  0
VERTEX
  8
MRF136A_DRD
 10
4.6457
 20
-1.0274
 30
0.0000
  0
VERTEX
  8
MRF136A_DRD
 10
4.6457
 20
-1.0440
 30
0.0000
  0
VERTEX
  8
MRF136A_DRD
 10
4.6415
 20
-1.0524
 30
0.0000
  0
VERTEX
  8
MRF136A_DRD
 10
4.6165
 20
-1.0524
 30
0.0000
  0
SEQEND
  0
POLYLINE
  8
MRF136A_DRD
 66
1
 10
0.0000
 20
0.0000
 30
0.0000
 40
0.0100
 41
0.0100
  0
VERTEX
  8
MRF136A_DRD
 10
4.5798
 20
-1.0024
 30
0.0000
  0
VERTEX
  8
MRF136A_DRD
 10
4.5798
 20
-1.0023
 30
0.0000
  0
VERTEX
  8
MRF136A_DRD
 10
4.5799
 20
-1.0023
 30
0.0000
  0
VERTEX
  8
MRF136A_DRD
 10
4.5799
 20
-1.0024
 30
0.0000
  0
VERTEX
  8
MRF136A_DRD
 10
4.5798
 20
-1.0024
 30
0.0000
  0
SEQEND
  0
POLYLINE
  8
MRF136A_DRD
 66
1
 10
0.0000
 20
0.0000
 30
0.0000
 40
0.0100
 41
0.0100
  0
VERTEX
  8
MRF136A_DRD
 10
4.5882
 20
-1.0524
 30
0.0000
  0
VERTEX
  8
MRF136A_DRD
 10
4.5715
 20
-1.0524
 30
0.0000
  0
SEQEND
  0
POLYLINE
  8
MRF136A_DRD
 66
1
 10
0.0000
 20
0.0000
 30
0.0000
 40
0.0100
 41
0.0100
  0
VERTEX
  8
MRF136A_DRD
 10
4.5799
 20
-1.0524
 30
0.0000
  0
VERTEX
  8
MRF136A_DRD
 10
4.5799
 20
-1.0190
 30
0.0000
  0
VERTEX
  8
MRF136A_DRD
 10
4.5715
 20
-1.0190
 30
0.0000
  0
SEQEND
  0
POLYLINE
  8
MRF136A_DRD
 66
1
 10
0.0000
 20
0.0000
 30
0.0000
 40
0.0100
 41
0.0100
  0
VERTEX
  8
MRF136A_DRD
 10
4.5390
 20
-1.0190
 30
0.0000
  0
VERTEX
  8
MRF136A_DRD
 10
4.5141
 20
-1.0190
 30
0.0000
  0
SEQEND
  0
POLYLINE
  8
MRF136A_DRD
 66
1
 10
0.0000
 20
0.0000
 30
0.0000
 40
0.0100
 41
0.0100
  0
VERTEX
  8
MRF136A_DRD
 10
4.5432
 20
-1.0524
 30
0.0000
  0
VERTEX
  8
MRF136A_DRD
 10
4.5266
 20
-1.0524
 30
0.0000
  0
SEQEND
  0
POLYLINE
  8
MRF136A_DRD
 66
1
 10
0.0000
 20
0.0000
 30
0.0000
 40
0.0100
 41
0.0100
  0
VERTEX
  8
MRF136A_DRD
 10
4.5265
 20
-1.0524
 30
0.0000
  0
VERTEX
  8
MRF136A_DRD
 10
4.5224
 20
-1.0440
 30
0.0000
  0
VERTEX
  8
MRF136A_DRD
 10
4.5224
 20
-1.0024
 30
0.0000
  0
SEQEND
  0
POLYLINE
  8
MRF136A_DRD
 66
1
 10
0.0000
 20
0.0000
 30
0.0000
 40
0.0100
 41
0.0100
  0
VERTEX
  8
MRF136A_DRD
 10
4.4649
 20
-1.0190
 30
0.0000
  0
VERTEX
  8
MRF136A_DRD
 10
4.4815
 20
-1.0190
 30
0.0000
  0
VERTEX
  8
MRF136A_DRD
 10
4.4857
 20
-1.0274
 30
0.0000
  0
VERTEX
  8
MRF136A_DRD
 10
4.4857
 20
-1.0440
 30
0.0000
  0
VERTEX
  8
MRF136A_DRD
 10
4.4899
 20
-1.0524
 30
0.0000
  0
VERTEX
  8
MRF136A_DRD
 10
4.4607
 20
-1.0524
 30
0.0000
  0
VERTEX
  8
MRF136A_DRD
 10
4.4566
 20
-1.0440
 30
0.0000
  0
SEQEND
  0
POLYLINE
  8
MRF136A_DRD
 66
1
 10
0.0000
 20
0.0000
 30
0.0000
 40
0.0100
 41
0.0100
  0
VERTEX
  8
MRF136A_DRD
 10
4.4565
 20
-1.0440
 30
0.0000
  0
VERTEX
  8
MRF136A_DRD
 10
4.4607
 20
-1.0357
 30
0.0000
  0
VERTEX
  8
MRF136A_DRD
 10
4.4857
 20
-1.0357
 30
0.0000
  0
SEQEND
  0
POLYLINE
  8
MRF136A_DRD
 66
1
 10
0.0000
 20
0.0000
 30
0.0000
 40
0.0100
 41
0.0100
  0
VERTEX
  8
MRF136A_DRD
 10
4.4157
 20
-1.0524
 30
0.0000
  0
VERTEX
  8
MRF136A_DRD
 10
4.4157
 20
-1.0274
 30
0.0000
  0
SEQEND
  0
POLYLINE
  8
MRF136A_DRD
 66
1
 10
0.0000
 20
0.0000
 30
0.0000
 40
0.0100
 41
0.0100
  0
VERTEX
  8
MRF136A_DRD
 10
4.4324
 20
-1.0524
 30
0.0000
  0
VERTEX
  8
MRF136A_DRD
 10
4.4324
 20
-1.0274
 30
0.0000
  0
VERTEX
  8
MRF136A_DRD
 10
4.4282
 20
-1.0190
 30
0.0000
  0
VERTEX
  8
MRF136A_DRD
 10
4.4199
 20
-1.0190
 30
0.0000
  0
VERTEX
  8
MRF136A_DRD
 10
4.4157
 20
-1.0274
 30
0.0000
  0
VERTEX
  8
MRF136A_DRD
 10
4.4116
 20
-1.0190
 30
0.0000
  0
SEQEND
  0
POLYLINE
  8
MRF136A_DRD
 66
1
 10
0.0000
 20
0.0000
 30
0.0000
 40
0.0100
 41
0.0100
  0
VERTEX
  8
MRF136A_DRD
 10
4.4115
 20
-1.0190
 30
0.0000
  0
VERTEX
  8
MRF136A_DRD
 10
4.4032
 20
-1.0190
 30
0.0000
  0
VERTEX
  8
MRF136A_DRD
 10
4.3991
 20
-1.0274
 30
0.0000
  0
SEQEND
  0
POLYLINE
  8
MRF136A_DRD
 66
1
 10
0.0000
 20
0.0000
 30
0.0000
 40
0.0100
 41
0.0100
  0
VERTEX
  8
MRF136A_DRD
 10
4.3990
 20
-1.0274
 30
0.0000
  0
VERTEX
  8
MRF136A_DRD
 10
4.3991
 20
-1.0524
 30
0.0000
  0
SEQEND
  0
POLYLINE
  8
MRF136A_DRD
 66
1
 10
0.0000
 20
0.0000
 30
0.0000
 40
0.0100
 41
0.0100
  0
VERTEX
  8
MRF136A_DRD
 10
4.3749
 20
-1.0190
 30
0.0000
  0
VERTEX
  8
MRF136A_DRD
 10
4.3582
 20
-1.0190
 30
0.0000
  0
VERTEX
  8
MRF136A_DRD
 10
4.3541
 20
-1.0274
 30
0.0000
  0
VERTEX
  8
MRF136A_DRD
 10
4.3457
 20
-1.0274
 30
0.0000
  0
SEQEND
  0
POLYLINE
  8
MRF136A_DRD
 66
1
 10
0.0000
 20
0.0000
 30
0.0000
 40
0.0100
 41
0.0100
  0
VERTEX
  8
MRF136A_DRD
 10
4.3457
 20
-1.0190
 30
0.0000
  0
VERTEX
  8
MRF136A_DRD
 10
4.3457
 20
-1.0524
 30
0.0000
  0
SEQEND
  0
POLYLINE
  8
MRF136A_DRD
 66
1
 10
0.0000
 20
0.0000
 30
0.0000
 40
0.0100
 41
0.0100
  0
VERTEX
  8
MRF136A_DRD
 10
4.2924
 20
-1.0524
 30
0.0000
  0
VERTEX
  8
MRF136A_DRD
 10
4.2882
 20
-1.0440
 30
0.0000
  0
VERTEX
  8
MRF136A_DRD
 10
4.2882
 20
-1.0274
 30
0.0000
  0
VERTEX
  8
MRF136A_DRD
 10
4.2924
 20
-1.0190
 30
0.0000
  0
VERTEX
  8
MRF136A_DRD
 10
4.3174
 20
-1.0190
 30
0.0000
  0
VERTEX
  8
MRF136A_DRD
 10
4.3216
 20
-1.0274
 30
0.0000
  0
VERTEX
  8
MRF136A_DRD
 10
4.3216
 20
-1.0440
 30
0.0000
  0
VERTEX
  8
MRF136A_DRD
 10
4.3174
 20
-1.0524
 30
0.0000
  0
VERTEX
  8
MRF136A_DRD
 10
4.2924
 20
-1.0524
 30
0.0000
  0
SEQEND
  0
POLYLINE
  8
MRF136A_DRD
 66
1
 10
0.0000
 20
0.0000
 30
0.0000
 40
0.0100
 41
0.0100
  0
VERTEX
  8
MRF136A_DRD
 10
4.2641
 20
-1.0274
 30
0.0000
  0
VERTEX
  8
MRF136A_DRD
 10
4.2391
 20
-1.0274
 30
0.0000
  0
SEQEND
  0
POLYLINE
  8
MRF136A_DRD
 66
1
 10
0.0000
 20
0.0000
 30
0.0000
 40
0.0100
 41
0.0100
  0
VERTEX
  8
MRF136A_DRD
 10
4.2516
 20
-1.0524
 30
0.0000
  0
VERTEX
  8
MRF136A_DRD
 10
4.2516
 20
-1.0107
 30
0.0000
  0
VERTEX
  8
MRF136A_DRD
 10
4.2558
 20
-1.0024
 30
0.0000
  0
VERTEX
  8
MRF136A_DRD
 10
4.2641
 20
-1.0024
 30
0.0000
  0
SEQEND
  0
POLYLINE
  8
MRF136A_DRD
 66
1
 10
0.0000
 20
0.0000
 30
0.0000
 40
0.0100
 41
0.0100
  0
VERTEX
  8
MRF136A_DRD
 10
4.2149
 20
-1.0524
 30
0.0000
  0
VERTEX
  8
MRF136A_DRD
 10
4.2149
 20
-1.0274
 30
0.0000
  0
VERTEX
  8
MRF136A_DRD
 10
4.2107
 20
-1.0190
 30
0.0000
  0
VERTEX
  8
MRF136A_DRD
 10
4.1858
 20
-1.0190
 30
0.0000
  0
SEQEND
  0
POLYLINE
  8
MRF136A_DRD
 66
1
 10
0.0000
 20
0.0000
 30
0.0000
 40
0.0100
 41
0.0100
  0
VERTEX
  8
MRF136A_DRD
 10
4.1857
 20
-1.0190
 30
0.0000
  0
VERTEX
  8
MRF136A_DRD
 10
4.1858
 20
-1.0524
 30
0.0000
  0
SEQEND
  0
POLYLINE
  8
MRF136A_DRD
 66
1
 10
0.0000
 20
0.0000
 30
0.0000
 40
0.0100
 41
0.0100
  0
VERTEX
  8
MRF136A_DRD
 10
4.1616
 20
-1.0524
 30
0.0000
  0
VERTEX
  8
MRF136A_DRD
 10
4.1449
 20
-1.0524
 30
0.0000
  0
SEQEND
  0
POLYLINE
  8
MRF136A_DRD
 66
1
 10
0.0000
 20
0.0000
 30
0.0000
 40
0.0100
 41
0.0100
  0
VERTEX
  8
MRF136A_DRD
 10
4.1533
 20
-1.0524
 30
0.0000
  0
VERTEX
  8
MRF136A_DRD
 10
4.1533
 20
-1.0024
 30
0.0000
  0
SEQEND
  0
POLYLINE
  8
MRF136A_DRD
 66
1
 10
0.0000
 20
0.0000
 30
0.0000
 40
0.0100
 41
0.0100
  0
VERTEX
  8
MRF136A_DRD
 10
4.1616
 20
-1.0024
 30
0.0000
  0
VERTEX
  8
MRF136A_DRD
 10
4.1449
 20
-1.0024
 30
0.0000
  0
SEQEND
  0
POLYLINE
  8
MRF136A_DRD
 66
1
 10
0.0000
 20
0.0000
 30
0.0000
 40
0.0100
 41
0.0100
  0
VERTEX
  8
MRF136A_DRD
 10
4.0320
 20
-1.0190
 30
0.0000
  0
VERTEX
  8
MRF136A_DRD
 10
4.0070
 20
-1.0190
 30
0.0000
  0
SEQEND
  0
POLYLINE
  8
MRF136A_DRD
 66
1
 10
0.0000
 20
0.0000
 30
0.0000
 40
0.0100
 41
0.0100
  0
VERTEX
  8
MRF136A_DRD
 10
4.0362
 20
-1.0524
 30
0.0000
  0
VERTEX
  8
MRF136A_DRD
 10
4.0195
 20
-1.0524
 30
0.0000
  0
VERTEX
  8
MRF136A_DRD
 10
4.0154
 20
-1.0440
 30
0.0000
  0
VERTEX
  8
MRF136A_DRD
 10
4.0154
 20
-1.0024
 30
0.0000
  0
SEQEND
  0
POLYLINE
  8
MRF136A_DRD
 66
1
 10
0.0000
 20
0.0000
 30
0.0000
 40
0.0100
 41
0.0100
  0
VERTEX
  8
MRF136A_DRD
 10
3.9829
 20
-1.0190
 30
0.0000
  0
VERTEX
  8
MRF136A_DRD
 10
3.9579
 20
-1.0190
 30
0.0000
  0
VERTEX
  8
MRF136A_DRD
 10
3.9537
 20
-1.0274
 30
0.0000
  0
VERTEX
  8
MRF136A_DRD
 10
3.9537
 20
-1.0440
 30
0.0000
  0
VERTEX
  8
MRF136A_DRD
 10
3.9579
 20
-1.0524
 30
0.0000
  0
VERTEX
  8
MRF136A_DRD
 10
3.9829
 20
-1.0524
 30
0.0000
  0
SEQEND
  0
POLYLINE
  8
MRF136A_DRD
 66
1
 10
0.0000
 20
0.0000
 30
0.0000
 40
0.0100
 41
0.0100
  0
VERTEX
  8
MRF136A_DRD
 10
3.9045
 20
-1.0190
 30
0.0000
  0
VERTEX
  8
MRF136A_DRD
 10
3.9212
 20
-1.0190
 30
0.0000
  0
VERTEX
  8
MRF136A_DRD
 10
3.9254
 20
-1.0274
 30
0.0000
  0
VERTEX
  8
MRF136A_DRD
 10
3.9254
 20
-1.0440
 30
0.0000
  0
VERTEX
  8
MRF136A_DRD
 10
3.9295
 20
-1.0524
 30
0.0000
  0
VERTEX
  8
MRF136A_DRD
 10
3.9004
 20
-1.0524
 30
0.0000
  0
VERTEX
  8
MRF136A_DRD
 10
3.8962
 20
-1.0440
 30
0.0000
  0
VERTEX
  8
MRF136A_DRD
 10
3.9004
 20
-1.0357
 30
0.0000
  0
VERTEX
  8
MRF136A_DRD
 10
3.9254
 20
-1.0357
 30
0.0000
  0
SEQEND
  0
POLYLINE
  8
MRF136A_DRD
 66
1
 10
0.0000
 20
0.0000
 30
0.0000
 40
0.0100
 41
0.0100
  0
VERTEX
  8
MRF136A_DRD
 10
3.8679
 20
-1.0190
 30
0.0000
  0
VERTEX
  8
MRF136A_DRD
 10
3.8429
 20
-1.0190
 30
0.0000
  0
SEQEND
  0
POLYLINE
  8
MRF136A_DRD
 66
1
 10
0.0000
 20
0.0000
 30
0.0000
 40
0.0100
 41
0.0100
  0
VERTEX
  8
MRF136A_DRD
 10
3.8720
 20
-1.0524
 30
0.0000
  0
VERTEX
  8
MRF136A_DRD
 10
3.8554
 20
-1.0524
 30
0.0000
  0
VERTEX
  8
MRF136A_DRD
 10
3.8512
 20
-1.0440
 30
0.0000
  0
VERTEX
  8
MRF136A_DRD
 10
3.8512
 20
-1.0024
 30
0.0000
  0
SEQEND
  0
POLYLINE
  8
MRF136A_DRD
 66
1
 10
0.0000
 20
0.0000
 30
0.0000
 40
0.0100
 41
0.0100
  0
VERTEX
  8
MRF136A_DRD
 10
3.8187
 20
-1.0524
 30
0.0000
  0
VERTEX
  8
MRF136A_DRD
 10
3.8187
 20
-1.0274
 30
0.0000
  0
VERTEX
  8
MRF136A_DRD
 10
3.8145
 20
-1.0190
 30
0.0000
  0
VERTEX
  8
MRF136A_DRD
 10
3.7896
 20
-1.0190
 30
0.0000
  0
SEQEND
  0
POLYLINE
  8
MRF136A_DRD
 66
1
 10
0.0000
 20
0.0000
 30
0.0000
 40
0.0100
 41
0.0100
  0
VERTEX
  8
MRF136A_DRD
 10
3.7895
 20
-1.0190
 30
0.0000
  0
VERTEX
  8
MRF136A_DRD
 10
3.7896
 20
-1.0524
 30
0.0000
  0
SEQEND
  0
POLYLINE
  8
MRF136A_DRD
 66
1
 10
0.0000
 20
0.0000
 30
0.0000
 40
0.0100
 41
0.0100
  0
VERTEX
  8
MRF136A_DRD
 10
3.7362
 20
-1.0524
 30
0.0000
  0
VERTEX
  8
MRF136A_DRD
 10
3.7321
 20
-1.0440
 30
0.0000
  0
SEQEND
  0
POLYLINE
  8
MRF136A_DRD
 66
1
 10
0.0000
 20
0.0000
 30
0.0000
 40
0.0100
 41
0.0100
  0
VERTEX
  8
MRF136A_DRD
 10
3.7320
 20
-1.0440
 30
0.0000
  0
VERTEX
  8
MRF136A_DRD
 10
3.7321
 20
-1.0274
 30
0.0000
  0
SEQEND
  0
POLYLINE
  8
MRF136A_DRD
 66
1
 10
0.0000
 20
0.0000
 30
0.0000
 40
0.0100
 41
0.0100
  0
VERTEX
  8
MRF136A_DRD
 10
3.7320
 20
-1.0274
 30
0.0000
  0
VERTEX
  8
MRF136A_DRD
 10
3.7362
 20
-1.0190
 30
0.0000
  0
VERTEX
  8
MRF136A_DRD
 10
3.7612
 20
-1.0190
 30
0.0000
  0
VERTEX
  8
MRF136A_DRD
 10
3.7654
 20
-1.0274
 30
0.0000
  0
VERTEX
  8
MRF136A_DRD
 10
3.7654
 20
-1.0440
 30
0.0000
  0
VERTEX
  8
MRF136A_DRD
 10
3.7612
 20
-1.0524
 30
0.0000
  0
VERTEX
  8
MRF136A_DRD
 10
3.7362
 20
-1.0524
 30
0.0000
  0
SEQEND
  0
POLYLINE
  8
MRF136A_DRD
 66
1
 10
0.0000
 20
0.0000
 30
0.0000
 40
0.0100
 41
0.0100
  0
VERTEX
  8
MRF136A_DRD
 10
3.7079
 20
-1.0440
 30
0.0000
  0
VERTEX
  8
MRF136A_DRD
 10
3.7037
 20
-1.0524
 30
0.0000
  0
VERTEX
  8
MRF136A_DRD
 10
3.6787
 20
-1.0524
 30
0.0000
  0
VERTEX
  8
MRF136A_DRD
 10
3.6746
 20
-1.0440
 30
0.0000
  0
SEQEND
  0
POLYLINE
  8
MRF136A_DRD
 66
1
 10
0.0000
 20
0.0000
 30
0.0000
 40
0.0100
 41
0.0100
  0
VERTEX
  8
MRF136A_DRD
 10
3.6745
 20
-1.0440
 30
0.0000
  0
VERTEX
  8
MRF136A_DRD
 10
3.6746
 20
-1.0107
 30
0.0000
  0
SEQEND
  0
POLYLINE
  8
MRF136A_DRD
 66
1
 10
0.0000
 20
0.0000
 30
0.0000
 40
0.0100
 41
0.0100
  0
VERTEX
  8
MRF136A_DRD
 10
3.6745
 20
-1.0107
 30
0.0000
  0
VERTEX
  8
MRF136A_DRD
 10
3.6787
 20
-1.0024
 30
0.0000
  0
VERTEX
  8
MRF136A_DRD
 10
3.7037
 20
-1.0024
 30
0.0000
  0
VERTEX
  8
MRF136A_DRD
 10
3.7079
 20
-1.0107
 30
0.0000
  0
SEQEND
  0
POLYLINE
  8
MRF136A_DRD
 66
1
 10
0.0000
 20
0.0000
 30
0.0000
 40
0.0100
 41
0.0100
  0
VERTEX
  8
MRF136A_DRD
 10
4.6230
 20
-1.1980
 30
0.0000
  0
VERTEX
  8
MRF136A_DRD
 10
4.6230
 20
-1.1730
 30
0.0000
  0
VERTEX
  8
MRF136A_DRD
 10
4.6189
 20
-1.1646
 30
0.0000
  0
VERTEX
  8
MRF136A_DRD
 10
4.5939
 20
-1.1646
 30
0.0000
  0
SEQEND
  0
POLYLINE
  8
MRF136A_DRD
 66
1
 10
0.0000
 20
0.0000
 30
0.0000
 40
0.0100
 41
0.0100
  0
VERTEX
  8
MRF136A_DRD
 10
4.5939
 20
-1.1980
 30
0.0000
  0
VERTEX
  8
MRF136A_DRD
 10
4.5939
 20
-1.1480
 30
0.0000
  0
SEQEND
  0
POLYLINE
  8
MRF136A_DRD
 66
1
 10
0.0000
 20
0.0000
 30
0.0000
 40
0.0100
 41
0.0100
  0
VERTEX
  8
MRF136A_DRD
 10
4.5655
 20
-1.1646
 30
0.0000
  0
VERTEX
  8
MRF136A_DRD
 10
4.5406
 20
-1.1646
 30
0.0000
  0
SEQEND
  0
POLYLINE
  8
MRF136A_DRD
 66
1
 10
0.0000
 20
0.0000
 30
0.0000
 40
0.0100
 41
0.0100
  0
VERTEX
  8
MRF136A_DRD
 10
4.5697
 20
-1.1980
 30
0.0000
  0
VERTEX
  8
MRF136A_DRD
 10
4.5531
 20
-1.1980
 30
0.0000
  0
SEQEND
  0
POLYLINE
  8
MRF136A_DRD
 66
1
 10
0.0000
 20
0.0000
 30
0.0000
 40
0.0100
 41
0.0100
  0
VERTEX
  8
MRF136A_DRD
 10
4.5530
 20
-1.1980
 30
0.0000
  0
VERTEX
  8
MRF136A_DRD
 10
4.5489
 20
-1.1896
 30
0.0000
  0
VERTEX
  8
MRF136A_DRD
 10
4.5489
 20
-1.1480
 30
0.0000
  0
SEQEND
  0
POLYLINE
  8
MRF136A_DRD
 66
1
 10
0.0000
 20
0.0000
 30
0.0000
 40
0.0100
 41
0.0100
  0
VERTEX
  8
MRF136A_DRD
 10
4.5080
 20
-1.1480
 30
0.0000
  0
VERTEX
  8
MRF136A_DRD
 10
4.5080
 20
-1.1479
 30
0.0000
  0
VERTEX
  8
MRF136A_DRD
 10
4.5081
 20
-1.1479
 30
0.0000
  0
VERTEX
  8
MRF136A_DRD
 10
4.5081
 20
-1.1480
 30
0.0000
  0
VERTEX
  8
MRF136A_DRD
 10
4.5080
 20
-1.1480
 30
0.0000
  0
SEQEND
  0
POLYLINE
  8
MRF136A_DRD
 66
1
 10
0.0000
 20
0.0000
 30
0.0000
 40
0.0100
 41
0.0100
  0
VERTEX
  8
MRF136A_DRD
 10
4.5164
 20
-1.1980
 30
0.0000
  0
VERTEX
  8
MRF136A_DRD
 10
4.4997
 20
-1.1980
 30
0.0000
  0
SEQEND
  0
POLYLINE
  8
MRF136A_DRD
 66
1
 10
0.0000
 20
0.0000
 30
0.0000
 40
0.0100
 41
0.0100
  0
VERTEX
  8
MRF136A_DRD
 10
4.5080
 20
-1.1980
 30
0.0000
  0
VERTEX
  8
MRF136A_DRD
 10
4.5081
 20
-1.1646
 30
0.0000
  0
SEQEND
  0
POLYLINE
  8
MRF136A_DRD
 66
1
 10
0.0000
 20
0.0000
 30
0.0000
 40
0.0100
 41
0.0100
  0
VERTEX
  8
MRF136A_DRD
 10
4.5080
 20
-1.1646
 30
0.0000
  0
VERTEX
  8
MRF136A_DRD
 10
4.4997
 20
-1.1646
 30
0.0000
  0
SEQEND
  0
POLYLINE
  8
MRF136A_DRD
 66
1
 10
0.0000
 20
0.0000
 30
0.0000
 40
0.0100
 41
0.0100
  0
VERTEX
  8
MRF136A_DRD
 10
4.4714
 20
-1.1730
 30
0.0000
  0
VERTEX
  8
MRF136A_DRD
 10
4.4464
 20
-1.1730
 30
0.0000
  0
SEQEND
  0
POLYLINE
  8
MRF136A_DRD
 66
1
 10
0.0000
 20
0.0000
 30
0.0000
 40
0.0100
 41
0.0100
  0
VERTEX
  8
MRF136A_DRD
 10
4.4589
 20
-1.1980
 30
0.0000
  0
VERTEX
  8
MRF136A_DRD
 10
4.4589
 20
-1.1563
 30
0.0000
  0
VERTEX
  8
MRF136A_DRD
 10
4.4631
 20
-1.1480
 30
0.0000
  0
VERTEX
  8
MRF136A_DRD
 10
4.4714
 20
-1.1480
 30
0.0000
  0
SEQEND
  0
POLYLINE
  8
MRF136A_DRD
 66
1
 10
0.0000
 20
0.0000
 30
0.0000
 40
0.0100
 41
0.0100
  0
VERTEX
  8
MRF136A_DRD
 10
4.4222
 20
-1.1730
 30
0.0000
  0
VERTEX
  8
MRF136A_DRD
 10
4.3973
 20
-1.1730
 30
0.0000
  0
SEQEND
  0
POLYLINE
  8
MRF136A_DRD
 66
1
 10
0.0000
 20
0.0000
 30
0.0000
 40
0.0100
 41
0.0100
  0
VERTEX
  8
MRF136A_DRD
 10
4.4097
 20
-1.1980
 30
0.0000
  0
VERTEX
  8
MRF136A_DRD
 10
4.4098
 20
-1.1563
 30
0.0000
  0
SEQEND
  0
POLYLINE
  8
MRF136A_DRD
 66
1
 10
0.0000
 20
0.0000
 30
0.0000
 40
0.0100
 41
0.0100
  0
VERTEX
  8
MRF136A_DRD
 10
4.4097
 20
-1.1563
 30
0.0000
  0
VERTEX
  8
MRF136A_DRD
 10
4.4139
 20
-1.1480
 30
0.0000
  0
VERTEX
  8
MRF136A_DRD
 10
4.4222
 20
-1.1480
 30
0.0000
  0
SEQEND
  0
POLYLINE
  8
MRF136A_DRD
 66
1
 10
0.0000
 20
0.0000
 30
0.0000
 40
0.0100
 41
0.0100
  0
VERTEX
  8
MRF136A_DRD
 10
4.3647
 20
-1.1480
 30
0.0000
  0
VERTEX
  8
MRF136A_DRD
 10
4.3647
 20
-1.1479
 30
0.0000
  0
VERTEX
  8
MRF136A_DRD
 10
4.3648
 20
-1.1479
 30
0.0000
  0
VERTEX
  8
MRF136A_DRD
 10
4.3648
 20
-1.1480
 30
0.0000
  0
VERTEX
  8
MRF136A_DRD
 10
4.3647
 20
-1.1480
 30
0.0000
  0
SEQEND
  0
POLYLINE
  8
MRF136A_DRD
 66
1
 10
0.0000
 20
0.0000
 30
0.0000
 40
0.0100
 41
0.0100
  0
VERTEX
  8
MRF136A_DRD
 10
4.3731
 20
-1.1980
 30
0.0000
  0
VERTEX
  8
MRF136A_DRD
 10
4.3564
 20
-1.1980
 30
0.0000
  0
SEQEND
  0
POLYLINE
  8
MRF136A_DRD
 66
1
 10
0.0000
 20
0.0000
 30
0.0000
 40
0.0100
 41
0.0100
  0
VERTEX
  8
MRF136A_DRD
 10
4.3647
 20
-1.1980
 30
0.0000
  0
VERTEX
  8
MRF136A_DRD
 10
4.3648
 20
-1.1646
 30
0.0000
  0
SEQEND
  0
POLYLINE
  8
MRF136A_DRD
 66
1
 10
0.0000
 20
0.0000
 30
0.0000
 40
0.0100
 41
0.0100
  0
VERTEX
  8
MRF136A_DRD
 10
4.3647
 20
-1.1646
 30
0.0000
  0
VERTEX
  8
MRF136A_DRD
 10
4.3564
 20
-1.1646
 30
0.0000
  0
SEQEND
  0
POLYLINE
  8
MRF136A_DRD
 66
1
 10
0.0000
 20
0.0000
 30
0.0000
 40
0.0100
 41
0.0100
  0
VERTEX
  8
MRF136A_DRD
 10
4.3281
 20
-1.1646
 30
0.0000
  0
VERTEX
  8
MRF136A_DRD
 10
4.3114
 20
-1.1646
 30
0.0000
  0
VERTEX
  8
MRF136A_DRD
 10
4.3073
 20
-1.1730
 30
0.0000
  0
VERTEX
  8
MRF136A_DRD
 10
4.2989
 20
-1.1730
 30
0.0000
  0
SEQEND
  0
POLYLINE
  8
MRF136A_DRD
 66
1
 10
0.0000
 20
0.0000
 30
0.0000
 40
0.0100
 41
0.0100
  0
VERTEX
  8
MRF136A_DRD
 10
4.2989
 20
-1.1646
 30
0.0000
  0
VERTEX
  8
MRF136A_DRD
 10
4.2989
 20
-1.1980
 30
0.0000
  0
SEQEND
  0
POLYLINE
  8
MRF136A_DRD
 66
1
 10
0.0000
 20
0.0000
 30
0.0000
 40
0.0100
 41
0.0100
  0
VERTEX
  8
MRF136A_DRD
 10
4.2581
 20
-1.1730
 30
0.0000
  0
VERTEX
  8
MRF136A_DRD
 10
4.2748
 20
-1.1730
 30
0.0000
  0
VERTEX
  8
MRF136A_DRD
 10
4.2748
 20
-1.1896
 30
0.0000
  0
VERTEX
  8
MRF136A_DRD
 10
4.2706
 20
-1.1980
 30
0.0000
  0
VERTEX
  8
MRF136A_DRD
 10
4.2456
 20
-1.1980
 30
0.0000
  0
VERTEX
  8
MRF136A_DRD
 10
4.2414
 20
-1.1896
 30
0.0000
  0
VERTEX
  8
MRF136A_DRD
 10
4.2414
 20
-1.1563
 30
0.0000
  0
VERTEX
  8
MRF136A_DRD
 10
4.2456
 20
-1.1480
 30
0.0000
  0
VERTEX
  8
MRF136A_DRD
 10
4.2706
 20
-1.1480
 30
0.0000
  0
VERTEX
  8
MRF136A_DRD
 10
4.2748
 20
-1.1563
 30
0.0000
  0
SEQEND
  0
POLYLINE
  8
MRF136A_DRD
 66
1
 10
0.0000
 20
0.0000
 30
0.0000
 40
0.0100
 41
0.0100
  0
VERTEX
  8
MRF136A_DRD
 10
4.1410
 20
-1.1980
 30
0.0000
  0
VERTEX
  8
MRF136A_DRD
 10
4.1410
 20
-1.1480
 30
0.0000
  0
VERTEX
  8
MRF136A_DRD
 10
4.1327
 20
-1.1563
 30
0.0000
  0
VERTEX
  8
MRF136A_DRD
 10
4.1244
 20
-1.1730
 30
0.0000
  0
VERTEX
  8
MRF136A_DRD
 10
4.1160
 20
-1.1563
 30
0.0000
  0
VERTEX
  8
MRF136A_DRD
 10
4.1077
 20
-1.1480
 30
0.0000
  0
VERTEX
  8
MRF136A_DRD
 10
4.1077
 20
-1.1980
 30
0.0000
  0
SEQEND
  0
POLYLINE
  8
MRF136A_DRD
 66
1
 10
0.0000
 20
0.0000
 30
0.0000
 40
0.0100
 41
0.0100
  0
VERTEX
  8
MRF136A_DRD
 10
4.0073
 20
-1.1646
 30
0.0000
  0
VERTEX
  8
MRF136A_DRD
 10
4.0073
 20
-1.1896
 30
0.0000
  0
VERTEX
  8
MRF136A_DRD
 10
4.0031
 20
-1.1980
 30
0.0000
  0
VERTEX
  8
MRF136A_DRD
 10
3.9906
 20
-1.1730
 30
0.0000
  0
VERTEX
  8
MRF136A_DRD
 10
3.9781
 20
-1.1980
 30
0.0000
  0
VERTEX
  8
MRF136A_DRD
 10
3.9739
 20
-1.1896
 30
0.0000
  0
VERTEX
  8
MRF136A_DRD
 10
3.9739
 20
-1.1646
 30
0.0000
  0
SEQEND
  0
POLYLINE
  8
MRF136A_DRD
 66
1
 10
0.0000
 20
0.0000
 30
0.0000
 40
0.0100
 41
0.0100
  0
VERTEX
  8
MRF136A_DRD
 10
3.9456
 20
-1.1980
 30
0.0000
  0
VERTEX
  8
MRF136A_DRD
 10
3.9206
 20
-1.1980
 30
0.0000
  0
VERTEX
  8
MRF136A_DRD
 10
3.9164
 20
-1.1896
 30
0.0000
  0
VERTEX
  8
MRF136A_DRD
 10
3.9164
 20
-1.1730
 30
0.0000
  0
VERTEX
  8
MRF136A_DRD
 10
3.9206
 20
-1.1646
 30
0.0000
  0
VERTEX
  8
MRF136A_DRD
 10
3.9456
 20
-1.1646
 30
0.0000
  0
VERTEX
  8
MRF136A_DRD
 10
3.9498
 20
-1.1730
 30
0.0000
  0
VERTEX
  8
MRF136A_DRD
 10
3.9498
 20
-1.1813
 30
0.0000
  0
VERTEX
  8
MRF136A_DRD
 10
3.9164
 20
-1.1813
 30
0.0000
  0
SEQEND
  0
POLYLINE
  8
MRF136A_DRD
 66
1
 10
0.0000
 20
0.0000
 30
0.0000
 40
0.0100
 41
0.0100
  0
VERTEX
  8
MRF136A_DRD
 10
3.8923
 20
-1.1646
 30
0.0000
  0
VERTEX
  8
MRF136A_DRD
 10
3.8756
 20
-1.1646
 30
0.0000
  0
VERTEX
  8
MRF136A_DRD
 10
3.8715
 20
-1.1730
 30
0.0000
  0
VERTEX
  8
MRF136A_DRD
 10
3.8631
 20
-1.1730
 30
0.0000
  0
SEQEND
  0
POLYLINE
  8
MRF136A_DRD
 66
1
 10
0.0000
 20
0.0000
 30
0.0000
 40
0.0100
 41
0.0100
  0
VERTEX
  8
MRF136A_DRD
 10
3.8631
 20
-1.1646
 30
0.0000
  0
VERTEX
  8
MRF136A_DRD
 10
3.8631
 20
-1.1980
 30
0.0000
  0
SEQEND
  0
POLYLINE
  8
MRF136A_DRD
 66
1
 10
0.0000
 20
0.0000
 30
0.0000
 40
0.0100
 41
0.0100
  0
VERTEX
  8
MRF136A_DRD
 10
3.8389
 20
-1.1480
 30
0.0000
  0
VERTEX
  8
MRF136A_DRD
 10
3.8390
 20
-1.1980
 30
0.0000
  0
SEQEND
  0
POLYLINE
  8
MRF136A_DRD
 66
1
 10
0.0000
 20
0.0000
 30
0.0000
 40
0.0100
 41
0.0100
  0
VERTEX
  8
MRF136A_DRD
 10
3.8389
 20
-1.1980
 30
0.0000
  0
VERTEX
  8
MRF136A_DRD
 10
3.8140
 20
-1.1980
 30
0.0000
  0
SEQEND
  0
POLYLINE
  8
MRF136A_DRD
 66
1
 10
0.0000
 20
0.0000
 30
0.0000
 40
0.0100
 41
0.0100
  0
VERTEX
  8
MRF136A_DRD
 10
3.8139
 20
-1.1980
 30
0.0000
  0
VERTEX
  8
MRF136A_DRD
 10
3.8098
 20
-1.1896
 30
0.0000
  0
VERTEX
  8
MRF136A_DRD
 10
3.8098
 20
-1.1730
 30
0.0000
  0
VERTEX
  8
MRF136A_DRD
 10
3.8140
 20
-1.1646
 30
0.0000
  0
SEQEND
  0
POLYLINE
  8
MRF136A_DRD
 66
1
 10
0.0000
 20
0.0000
 30
0.0000
 40
0.0100
 41
0.0100
  0
VERTEX
  8
MRF136A_DRD
 10
3.8139
 20
-1.1646
 30
0.0000
  0
VERTEX
  8
MRF136A_DRD
 10
3.8390
 20
-1.1646
 30
0.0000
  0
SEQEND
  0
POLYLINE
  8
MRF136A_DRD
 66
1
 10
0.0000
 20
0.0000
 30
0.0000
 40
0.0100
 41
0.0100
  0
VERTEX
  8
MRF136A_DRD
 10
3.7856
 20
-1.1980
 30
0.0000
  0
VERTEX
  8
MRF136A_DRD
 10
3.7856
 20
-1.1730
 30
0.0000
  0
VERTEX
  8
MRF136A_DRD
 10
3.7814
 20
-1.1646
 30
0.0000
  0
VERTEX
  8
MRF136A_DRD
 10
3.7565
 20
-1.1646
 30
0.0000
  0
SEQEND
  0
POLYLINE
  8
MRF136A_DRD
 66
1
 10
0.0000
 20
0.0000
 30
0.0000
 40
0.0100
 41
0.0100
  0
VERTEX
  8
MRF136A_DRD
 10
3.7564
 20
-1.1646
 30
0.0000
  0
VERTEX
  8
MRF136A_DRD
 10
3.7565
 20
-1.1980
 30
0.0000
  0
SEQEND
  0
POLYLINE
  8
MRF136A_DRD
 66
1
 10
0.0000
 20
0.0000
 30
0.0000
 40
0.0100
 41
0.0100
  0
VERTEX
  8
MRF136A_DRD
 10
3.7323
 20
-1.1813
 30
0.0000
  0
VERTEX
  8
MRF136A_DRD
 10
3.6990
 20
-1.1813
 30
0.0000
  0
SEQEND
  0
POLYLINE
  8
MRF136A_DRD
 66
1
 10
0.0000
 20
0.0000
 30
0.0000
 40
0.0100
 41
0.0100
  0
VERTEX
  8
MRF136A_DRD
 10
3.7323
 20
-1.1980
 30
0.0000
  0
VERTEX
  8
MRF136A_DRD
 10
3.7323
 20
-1.1730
 30
0.0000
  0
VERTEX
  8
MRF136A_DRD
 10
3.7198
 20
-1.1480
 30
0.0000
  0
VERTEX
  8
MRF136A_DRD
 10
3.7115
 20
-1.1480
 30
0.0000
  0
SEQEND
  0
POLYLINE
  8
MRF136A_DRD
 66
1
 10
0.0000
 20
0.0000
 30
0.0000
 40
0.0100
 41
0.0100
  0
VERTEX
  8
MRF136A_DRD
 10
3.7114
 20
-1.1480
 30
0.0000
  0
VERTEX
  8
MRF136A_DRD
 10
3.6990
 20
-1.1730
 30
0.0000
  0
SEQEND
  0
POLYLINE
  8
MRF136A_DRD
 66
1
 10
0.0000
 20
0.0000
 30
0.0000
 40
0.0100
 41
0.0100
  0
VERTEX
  8
MRF136A_DRD
 10
3.6989
 20
-1.1730
 30
0.0000
  0
VERTEX
  8
MRF136A_DRD
 10
3.6990
 20
-1.1980
 30
0.0000
  0
SEQEND
  0
POLYLINE
  8
MRF136A_DRD
 66
1
 10
0.0000
 20
0.0000
 30
0.0000
 40
0.0100
 41
0.0100
  0
VERTEX
  8
MRF136A_DRD
 10
0.1300
 20
-1.4472
 30
0.0000
  0
VERTEX
  8
MRF136A_DRD
 10
-0.1400
 20
-1.4472
 30
0.0000
  0
SEQEND
  0
POLYLINE
  8
MRF136A_DRD
 66
1
 10
0.0000
 20
0.0000
 30
0.0000
 40
0.0100
 41
0.0100
  0
VERTEX
  8
MRF136A_DRD
 10
-0.0050
 20
-1.3122
 30
0.0000
  0
VERTEX
  8
MRF136A_DRD
 10
-0.0050
 20
-1.5822
 30
0.0000
  0
SEQEND
  0
POLYLINE
  8
MRF136A_DRD
 66
1
 10
0.0000
 20
0.0000
 30
0.0000
 40
0.0100
 41
0.0100
  0
VERTEX
  8
MRF136A_DRD
 10
0.0087
 20
-1.4065
 30
0.0000
  0
VERTEX
  8
MRF136A_DRD
 10
0.0087
 20
-1.4287
 30
0.0000
  0
SEQEND
  0
POLYLINE
  8
MRF136A_DRD
 66
1
 10
0.0000
 20
0.0000
 30
0.0000
 40
0.0100
 41
0.0100
  0
VERTEX
  8
MRF136A_DRD
 10
0.0198
 20
-1.3842
 30
0.0000
  0
VERTEX
  8
MRF136A_DRD
 10
0.0087
 20
-1.4065
 30
0.0000
  0
SEQEND
  0
POLYLINE
  8
MRF136A_DRD
 66
1
 10
0.0000
 20
0.0000
 30
0.0000
 40
0.0100
 41
0.0100
  0
VERTEX
  8
MRF136A_DRD
 10
0.0272
 20
-1.3842
 30
0.0000
  0
VERTEX
  8
MRF136A_DRD
 10
0.0198
 20
-1.3842
 30
0.0000
  0
SEQEND
  0
POLYLINE
  8
MRF136A_DRD
 66
1
 10
0.0000
 20
0.0000
 30
0.0000
 40
0.0100
 41
0.0100
  0
VERTEX
  8
MRF136A_DRD
 10
0.0383
 20
-1.4065
 30
0.0000
  0
VERTEX
  8
MRF136A_DRD
 10
0.0272
 20
-1.3842
 30
0.0000
  0
SEQEND
  0
POLYLINE
  8
MRF136A_DRD
 66
1
 10
0.0000
 20
0.0000
 30
0.0000
 40
0.0100
 41
0.0100
  0
VERTEX
  8
MRF136A_DRD
 10
0.0383
 20
-1.4287
 30
0.0000
  0
VERTEX
  8
MRF136A_DRD
 10
0.0383
 20
-1.4065
 30
0.0000
  0
SEQEND
  0
POLYLINE
  8
MRF136A_DRD
 66
1
 10
0.0000
 20
0.0000
 30
0.0000
 40
0.0100
 41
0.0100
  0
VERTEX
  8
MRF136A_DRD
 10
0.0383
 20
-1.4139
 30
0.0000
  0
VERTEX
  8
MRF136A_DRD
 10
0.0087
 20
-1.4139
 30
0.0000
  0
SEQEND
  0
POLYLINE
  8
MRF136A_DRD
 66
1
 10
0.0000
 20
0.0000
 30
0.0000
 40
0.0100
 41
0.0100
  0
VERTEX
  8
MRF136A_DRD
 10
0.0835
 20
-1.2972
 30
0.0000
  0
VERTEX
  8
MRF136A_DRD
 10
-0.0935
 20
-1.2972
 30
0.0000
  0
SEQEND
  0
POLYLINE
  8
MRF136A_DRD
 66
1
 10
0.0000
 20
0.0000
 30
0.0000
 40
0.0100
 41
0.0100
  0
VERTEX
  8
MRF136A_DRD
 10
-0.0050
 20
-1.2087
 30
0.0000
  0
VERTEX
  8
MRF136A_DRD
 10
-0.0050
 20
-1.3857
 30
0.0000
  0
SEQEND
  0
POLYLINE
  8
MRF136A_DRD
 66
1
 10
0.0000
 20
0.0000
 30
0.0000
 40
0.0100
 41
0.0100
  0
VERTEX
  8
MRF136A_DRD
 10
0.0309
 20
-1.2342
 30
0.0000
  0
VERTEX
  8
MRF136A_DRD
 10
0.0087
 20
-1.2342
 30
0.0000
  0
SEQEND
  0
POLYLINE
  8
MRF136A_DRD
 66
1
 10
0.0000
 20
0.0000
 30
0.0000
 40
0.0100
 41
0.0100
  0
VERTEX
  8
MRF136A_DRD
 10
0.0383
 20
-1.2416
 30
0.0000
  0
VERTEX
  8
MRF136A_DRD
 10
0.0309
 20
-1.2342
 30
0.0000
  0
SEQEND
  0
POLYLINE
  8
MRF136A_DRD
 66
1
 10
0.0000
 20
0.0000
 30
0.0000
 40
0.0100
 41
0.0100
  0
VERTEX
  8
MRF136A_DRD
 10
0.0383
 20
-1.2491
 30
0.0000
  0
VERTEX
  8
MRF136A_DRD
 10
0.0383
 20
-1.2416
 30
0.0000
  0
SEQEND
  0
POLYLINE
  8
MRF136A_DRD
 66
1
 10
0.0000
 20
0.0000
 30
0.0000
 40
0.0100
 41
0.0100
  0
VERTEX
  8
MRF136A_DRD
 10
0.0346
 20
-1.2565
 30
0.0000
  0
VERTEX
  8
MRF136A_DRD
 10
0.0383
 20
-1.2491
 30
0.0000
  0
SEQEND
  0
POLYLINE
  8
MRF136A_DRD
 66
1
 10
0.0000
 20
0.0000
 30
0.0000
 40
0.0100
 41
0.0100
  0
VERTEX
  8
MRF136A_DRD
 10
0.0124
 20
-1.2565
 30
0.0000
  0
VERTEX
  8
MRF136A_DRD
 10
0.0346
 20
-1.2565
 30
0.0000
  0
SEQEND
  0
POLYLINE
  8
MRF136A_DRD
 66
1
 10
0.0000
 20
0.0000
 30
0.0000
 40
0.0100
 41
0.0100
  0
VERTEX
  8
MRF136A_DRD
 10
0.0383
 20
-1.2639
 30
0.0000
  0
VERTEX
  8
MRF136A_DRD
 10
0.0346
 20
-1.2565
 30
0.0000
  0
SEQEND
  0
POLYLINE
  8
MRF136A_DRD
 66
1
 10
0.0000
 20
0.0000
 30
0.0000
 40
0.0100
 41
0.0100
  0
VERTEX
  8
MRF136A_DRD
 10
0.0383
 20
-1.2713
 30
0.0000
  0
VERTEX
  8
MRF136A_DRD
 10
0.0383
 20
-1.2639
 30
0.0000
  0
SEQEND
  0
POLYLINE
  8
MRF136A_DRD
 66
1
 10
0.0000
 20
0.0000
 30
0.0000
 40
0.0100
 41
0.0100
  0
VERTEX
  8
MRF136A_DRD
 10
0.0309
 20
-1.2787
 30
0.0000
  0
VERTEX
  8
MRF136A_DRD
 10
0.0383
 20
-1.2713
 30
0.0000
  0
SEQEND
  0
POLYLINE
  8
MRF136A_DRD
 66
1
 10
0.0000
 20
0.0000
 30
0.0000
 40
0.0100
 41
0.0100
  0
VERTEX
  8
MRF136A_DRD
 10
0.0087
 20
-1.2787
 30
0.0000
  0
VERTEX
  8
MRF136A_DRD
 10
0.0309
 20
-1.2787
 30
0.0000
  0
SEQEND
  0
POLYLINE
  8
MRF136A_DRD
 66
1
 10
0.0000
 20
0.0000
 30
0.0000
 40
0.0100
 41
0.0100
  0
VERTEX
  8
MRF136A_DRD
 10
0.0124
 20
-1.2787
 30
0.0000
  0
VERTEX
  8
MRF136A_DRD
 10
0.0124
 20
-1.2342
 30
0.0000
  0
SEQEND
  0
POLYLINE
  8
MRF136A_DRD
 66
1
 10
0.0000
 20
0.0000
 30
0.0000
 40
0.0100
 41
0.0100
  0
VERTEX
  8
MRF136A_DRD
 10
0.0700
 20
-1.1472
 30
0.0000
  0
VERTEX
  8
MRF136A_DRD
 10
-0.0800
 20
-1.1472
 30
0.0000
  0
SEQEND
  0
POLYLINE
  8
MRF136A_DRD
 66
1
 10
0.0000
 20
0.0000
 30
0.0000
 40
0.0100
 41
0.0100
  0
VERTEX
  8
MRF136A_DRD
 10
-0.0050
 20
-1.0722
 30
0.0000
  0
VERTEX
  8
MRF136A_DRD
 10
-0.0050
 20
-1.2222
 30
0.0000
  0
SEQEND
  0
POLYLINE
  8
MRF136A_DRD
 66
1
 10
0.0000
 20
0.0000
 30
0.0000
 40
0.0100
 41
0.0100
  0
VERTEX
  8
MRF136A_DRD
 10
0.0346
 20
-1.0842
 30
0.0000
  0
VERTEX
  8
MRF136A_DRD
 10
0.0383
 20
-1.0916
 30
0.0000
  0
SEQEND
  0
POLYLINE
  8
MRF136A_DRD
 66
1
 10
0.0000
 20
0.0000
 30
0.0000
 40
0.0100
 41
0.0100
  0
VERTEX
  8
MRF136A_DRD
 10
0.0124
 20
-1.0842
 30
0.0000
  0
VERTEX
  8
MRF136A_DRD
 10
0.0346
 20
-1.0842
 30
0.0000
  0
SEQEND
  0
POLYLINE
  8
MRF136A_DRD
 66
1
 10
0.0000
 20
0.0000
 30
0.0000
 40
0.0100
 41
0.0100
  0
VERTEX
  8
MRF136A_DRD
 10
0.0087
 20
-1.0916
 30
0.0000
  0
VERTEX
  8
MRF136A_DRD
 10
0.0124
 20
-1.0842
 30
0.0000
  0
SEQEND
  0
POLYLINE
  8
MRF136A_DRD
 66
1
 10
0.0000
 20
0.0000
 30
0.0000
 40
0.0100
 41
0.0100
  0
VERTEX
  8
MRF136A_DRD
 10
0.0087
 20
-1.1213
 30
0.0000
  0
VERTEX
  8
MRF136A_DRD
 10
0.0087
 20
-1.0916
 30
0.0000
  0
SEQEND
  0
POLYLINE
  8
MRF136A_DRD
 66
1
 10
0.0000
 20
0.0000
 30
0.0000
 40
0.0100
 41
0.0100
  0
VERTEX
  8
MRF136A_DRD
 10
0.0124
 20
-1.1287
 30
0.0000
  0
VERTEX
  8
MRF136A_DRD
 10
0.0087
 20
-1.1213
 30
0.0000
  0
SEQEND
  0
POLYLINE
  8
MRF136A_DRD
 66
1
 10
0.0000
 20
0.0000
 30
0.0000
 40
0.0100
 41
0.0100
  0
VERTEX
  8
MRF136A_DRD
 10
0.0346
 20
-1.1287
 30
0.0000
  0
VERTEX
  8
MRF136A_DRD
 10
0.0124
 20
-1.1287
 30
0.0000
  0
SEQEND
  0
POLYLINE
  8
MRF136A_DRD
 66
1
 10
0.0000
 20
0.0000
 30
0.0000
 40
0.0100
 41
0.0100
  0
VERTEX
  8
MRF136A_DRD
 10
0.0383
 20
-1.1213
 30
0.0000
  0
VERTEX
  8
MRF136A_DRD
 10
0.0346
 20
-1.1287
 30
0.0000
  0
SEQEND
  0
POLYLINE
  8
MRF136A_DRD
 66
1
 10
0.0000
 20
0.0000
 30
0.0000
 40
0.0100
 41
0.0100
  0
VERTEX
  8
MRF136A_DRD
 10
3.5425
 20
-1.8772
 30
0.0000
  0
VERTEX
  8
MRF136A_DRD
 10
-0.1925
 20
-1.8772
 30
0.0000
  0
SEQEND
  0
POLYLINE
  8
MRF136A_DRD
 66
1
 10
0.0000
 20
0.0000
 30
0.0000
 40
0.0100
 41
0.0100
  0
VERTEX
  8
MRF136A_DRD
 10
3.5375
 20
-1.8722
 30
0.0000
  0
VERTEX
  8
MRF136A_DRD
 10
-0.1875
 20
-1.8722
 30
0.0000
  0
SEQEND
  0
POLYLINE
  8
MRF136A_DRD
 66
1
 10
0.0000
 20
0.0000
 30
0.0000
 40
0.0100
 41
0.0100
  0
VERTEX
  8
MRF136A_DRD
 10
3.5375
 20
-1.6722
 30
0.0000
  0
VERTEX
  8
MRF136A_DRD
 10
-0.1875
 20
-1.6722
 30
0.0000
  0
SEQEND
  0
POLYLINE
  8
MRF136A_DRD
 66
1
 10
0.0000
 20
0.0000
 30
0.0000
 40
0.0100
 41
0.0100
  0
VERTEX
  8
MRF136A_DRD
 10
3.5375
 20
-1.5222
 30
0.0000
  0
VERTEX
  8
MRF136A_DRD
 10
-0.1875
 20
-1.5222
 30
0.0000
  0
SEQEND
  0
POLYLINE
  8
MRF136A_DRD
 66
1
 10
0.0000
 20
0.0000
 30
0.0000
 40
0.0100
 41
0.0100
  0
VERTEX
  8
MRF136A_DRD
 10
3.5375
 20
-1.3722
 30
0.0000
  0
VERTEX
  8
MRF136A_DRD
 10
-0.1875
 20
-1.3722
 30
0.0000
  0
SEQEND
  0
POLYLINE
  8
MRF136A_DRD
 66
1
 10
0.0000
 20
0.0000
 30
0.0000
 40
0.0100
 41
0.0100
  0
VERTEX
  8
MRF136A_DRD
 10
3.5375
 20
-1.2222
 30
0.0000
  0
VERTEX
  8
MRF136A_DRD
 10
-0.1875
 20
-1.2222
 30
0.0000
  0
SEQEND
  0
POLYLINE
  8
MRF136A_DRD
 66
1
 10
0.0000
 20
0.0000
 30
0.0000
 40
0.0100
 41
0.0100
  0
VERTEX
  8
MRF136A_DRD
 10
3.5375
 20
-1.0722
 30
0.0000
  0
VERTEX
  8
MRF136A_DRD
 10
-0.1875
 20
-1.0722
 30
0.0000
  0
SEQEND
  0
POLYLINE
  8
MRF136A_DRD
 66
1
 10
0.0000
 20
0.0000
 30
0.0000
 40
0.0100
 41
0.0100
  0
VERTEX
  8
MRF136A_DRD
 10
3.5375
 20
-1.0750
 30
0.0000
  0
VERTEX
  8
MRF136A_DRD
 10
-0.1875
 20
-1.0750
 30
0.0000
  0
SEQEND
  0
POLYLINE
  8
MRF136A_DRD
 66
1
 10
0.0000
 20
0.0000
 30
0.0000
 40
0.0100
 41
0.0100
  0
VERTEX
  8
MRF136A_DRD
 10
3.5375
 20
-0.9250
 30
0.0000
  0
VERTEX
  8
MRF136A_DRD
 10
-0.1875
 20
-0.9250
 30
0.0000
  0
SEQEND
  0
POLYLINE
  8
MRF136A_DRD
 66
1
 10
0.0000
 20
0.0000
 30
0.0000
 40
0.0100
 41
0.0100
  0
VERTEX
  8
MRF136A_DRD
 10
3.5375
 20
-0.9200
 30
0.0000
  0
VERTEX
  8
MRF136A_DRD
 10
-0.1875
 20
-0.9200
 30
0.0000
  0
SEQEND
  0
POLYLINE
  8
MRF136A_DRD
 66
1
 10
0.0000
 20
0.0000
 30
0.0000
 40
0.0100
 41
0.0100
  0
VERTEX
  8
MRF136A_DRD
 10
3.5375
 20
-0.7250
 30
0.0000
  0
VERTEX
  8
MRF136A_DRD
 10
-0.1875
 20
-0.7250
 30
0.0000
  0
SEQEND
  0
POLYLINE
  8
MRF136A_DRD
 66
1
 10
0.0000
 20
0.0000
 30
0.0000
 40
0.0100
 41
0.0100
  0
VERTEX
  8
MRF136A_DRD
 10
3.5375
 20
-0.7200
 30
0.0000
  0
VERTEX
  8
MRF136A_DRD
 10
-0.1875
 20
-0.7200
 30
0.0000
  0
SEQEND
  0
POLYLINE
  8
MRF136A_DRD
 66
1
 10
0.0000
 20
0.0000
 30
0.0000
 40
0.0100
 41
0.0100
  0
VERTEX
  8
MRF136A_DRD
 10
3.5375
 20
-0.5250
 30
0.0000
  0
VERTEX
  8
MRF136A_DRD
 10
-0.1875
 20
-0.5250
 30
0.0000
  0
SEQEND
  0
POLYLINE
  8
MRF136A_DRD
 66
1
 10
0.0000
 20
0.0000
 30
0.0000
 40
0.0100
 41
0.0100
  0
VERTEX
  8
MRF136A_DRD
 10
3.5425
 20
-0.5200
 30
0.0000
  0
VERTEX
  8
MRF136A_DRD
 10
-0.1925
 20
-0.5200
 30
0.0000
  0
SEQEND
  0
POLYLINE
  8
MRF136A_DRD
 66
1
 10
0.0000
 20
0.0000
 30
0.0000
 40
0.0100
 41
0.0100
  0
VERTEX
  8
MRF136A_DRD
 10
-0.1875
 20
2.8759
 30
0.0000
  0
VERTEX
  8
MRF136A_DRD
 10
-0.4125
 20
2.8759
 30
0.0000
  0
SEQEND
  0
POLYLINE
  8
MRF136A_DRD
 66
1
 10
0.0000
 20
0.0000
 30
0.0000
 40
0.0100
 41
0.0100
  0
VERTEX
  8
MRF136A_DRD
 10
-0.3000
 20
1.6599
 30
0.0000
  0
VERTEX
  8
MRF136A_DRD
 10
-0.3000
 20
2.8759
 30
0.0000
  0
SEQEND
  0
POLYLINE
  8
MRF136A_DRD
 66
1
 10
0.0000
 20
0.0000
 30
0.0000
 40
0.0100
 41
0.0100
  0
VERTEX
  8
MRF136A_DRD
 10
-0.3187
 20
2.8196
 30
0.0000
  0
VERTEX
  8
MRF136A_DRD
 10
-0.3000
 20
2.8759
 30
0.0000
  0
VERTEX
  8
MRF136A_DRD
 10
-0.2812
 20
2.8196
 30
0.0000
  0
SEQEND
  0
POLYLINE
  8
MRF136A_DRD
 66
1
 10
0.0000
 20
0.0000
 30
0.0000
 40
0.0100
 41
0.0100
  0
VERTEX
  8
MRF136A_DRD
 10
-0.1875
 20
-0.1250
 30
0.0000
  0
VERTEX
  8
MRF136A_DRD
 10
-0.4125
 20
-0.1250
 30
0.0000
  0
SEQEND
  0
POLYLINE
  8
MRF136A_DRD
 66
1
 10
0.0000
 20
0.0000
 30
0.0000
 40
0.0100
 41
0.0100
  0
VERTEX
  8
MRF136A_DRD
 10
-0.3000
 20
1.1149
 30
0.0000
  0
VERTEX
  8
MRF136A_DRD
 10
-0.3000
 20
-0.1010
 30
0.0000
  0
SEQEND
  0
POLYLINE
  8
MRF136A_DRD
 66
1
 10
0.0000
 20
0.0000
 30
0.0000
 40
0.0100
 41
0.0100
  0
VERTEX
  8
MRF136A_DRD
 10
-0.2812
 20
-0.0493
 30
0.0000
  0
VERTEX
  8
MRF136A_DRD
 10
-0.3000
 20
-0.1055
 30
0.0000
  0
VERTEX
  8
MRF136A_DRD
 10
-0.3187
 20
-0.0493
 30
0.0000
  0
SEQEND
  0
POLYLINE
  8
MRF136A_DRD
 66
1
 10
0.0000
 20
0.0000
 30
0.0000
 40
0.0100
 41
0.0100
  0
VERTEX
  8
MRF136A_DRD
 10
3.3247
 20
-0.4885
 30
0.0000
  0
VERTEX
  8
MRF136A_DRD
 10
3.3247
 20
-0.2635
 30
0.0000
  0
SEQEND
  0
POLYLINE
  8
MRF136A_DRD
 66
1
 10
0.0000
 20
0.0000
 30
0.0000
 40
0.0100
 41
0.0100
  0
VERTEX
  8
MRF136A_DRD
 10
1.8215
 20
-0.3760
 30
0.0000
  0
VERTEX
  8
MRF136A_DRD
 10
3.3247
 20
-0.3760
 30
0.0000
  0
SEQEND
  0
POLYLINE
  8
MRF136A_DRD
 66
1
 10
0.0000
 20
0.0000
 30
0.0000
 40
0.0100
 41
0.0100
  0
VERTEX
  8
MRF136A_DRD
 10
3.2684
 20
-0.3572
 30
0.0000
  0
VERTEX
  8
MRF136A_DRD
 10
3.3247
 20
-0.3760
 30
0.0000
  0
VERTEX
  8
MRF136A_DRD
 10
3.2684
 20
-0.3947
 30
0.0000
  0
SEQEND
  0
POLYLINE
  8
MRF136A_DRD
 66
1
 10
0.0000
 20
0.0000
 30
0.0000
 40
0.0100
 41
0.0100
  0
VERTEX
  8
MRF136A_DRD
 10
0.0000
 20
-0.4885
 30
0.0000
  0
VERTEX
  8
MRF136A_DRD
 10
0.0000
 20
-0.2635
 30
0.0000
  0
SEQEND
  0
POLYLINE
  8
MRF136A_DRD
 66
1
 10
0.0000
 20
0.0000
 30
0.0000
 40
0.0100
 41
0.0100
  0
VERTEX
  8
MRF136A_DRD
 10
1.5032
 20
-0.3760
 30
0.0000
  0
VERTEX
  8
MRF136A_DRD
 10
0.0000
 20
-0.3760
 30
0.0000
  0
SEQEND
  0
POLYLINE
  8
MRF136A_DRD
 66
1
 10
0.0000
 20
0.0000
 30
0.0000
 40
0.0100
 41
0.0100
  0
VERTEX
  8
MRF136A_DRD
 10
0.0562
 20
-0.3947
 30
0.0000
  0
VERTEX
  8
MRF136A_DRD
 10
0.0000
 20
-0.3760
 30
0.0000
  0
VERTEX
  8
MRF136A_DRD
 10
0.0562
 20
-0.3572
 30
0.0000
  0
SEQEND
  0
POLYLINE
  8
MRF136A_DRD
 66
1
 10
0.0000
 20
0.0000
 30
0.0000
 40
0.0100
 41
0.0100
  0
VERTEX
  8
MRF136A_DRD
 10
3.1885
 20
2.5250
 30
0.0000
  0
VERTEX
  8
MRF136A_DRD
 10
3.0115
 20
2.5250
 30
0.0000
  0
SEQEND
  0
POLYLINE
  8
MRF136A_DRD
 66
1
 10
0.0000
 20
0.0000
 30
0.0000
 40
0.0100
 41
0.0100
  0
VERTEX
  8
MRF136A_DRD
 10
3.1000
 20
2.6135
 30
0.0000
  0
VERTEX
  8
MRF136A_DRD
 10
3.1000
 20
2.4365
 30
0.0000
  0
SEQEND
  0
POLYLINE
  8
MRF136A_DRD
 66
1
 10
0.0000
 20
0.0000
 30
0.0000
 40
0.0100
 41
0.0100
  0
VERTEX
  8
MRF136A_DRD
 10
3.1359
 20
2.5879
 30
0.0000
  0
VERTEX
  8
MRF136A_DRD
 10
3.1137
 20
2.5879
 30
0.0000
  0
SEQEND
  0
POLYLINE
  8
MRF136A_DRD
 66
1
 10
0.0000
 20
0.0000
 30
0.0000
 40
0.0100
 41
0.0100
  0
VERTEX
  8
MRF136A_DRD
 10
3.1433
 20
2.5805
 30
0.0000
  0
VERTEX
  8
MRF136A_DRD
 10
3.1359
 20
2.5879
 30
0.0000
  0
SEQEND
  0
POLYLINE
  8
MRF136A_DRD
 66
1
 10
0.0000
 20
0.0000
 30
0.0000
 40
0.0100
 41
0.0100
  0
VERTEX
  8
MRF136A_DRD
 10
3.1433
 20
2.5731
 30
0.0000
  0
VERTEX
  8
MRF136A_DRD
 10
3.1433
 20
2.5805
 30
0.0000
  0
SEQEND
  0
POLYLINE
  8
MRF136A_DRD
 66
1
 10
0.0000
 20
0.0000
 30
0.0000
 40
0.0100
 41
0.0100
  0
VERTEX
  8
MRF136A_DRD
 10
3.1396
 20
2.5657
 30
0.0000
  0
VERTEX
  8
MRF136A_DRD
 10
3.1433
 20
2.5731
 30
0.0000
  0
SEQEND
  0
POLYLINE
  8
MRF136A_DRD
 66
1
 10
0.0000
 20
0.0000
 30
0.0000
 40
0.0100
 41
0.0100
  0
VERTEX
  8
MRF136A_DRD
 10
3.1174
 20
2.5657
 30
0.0000
  0
VERTEX
  8
MRF136A_DRD
 10
3.1396
 20
2.5657
 30
0.0000
  0
SEQEND
  0
POLYLINE
  8
MRF136A_DRD
 66
1
 10
0.0000
 20
0.0000
 30
0.0000
 40
0.0100
 41
0.0100
  0
VERTEX
  8
MRF136A_DRD
 10
3.1433
 20
2.5583
 30
0.0000
  0
VERTEX
  8
MRF136A_DRD
 10
3.1396
 20
2.5657
 30
0.0000
  0
SEQEND
  0
POLYLINE
  8
MRF136A_DRD
 66
1
 10
0.0000
 20
0.0000
 30
0.0000
 40
0.0100
 41
0.0100
  0
VERTEX
  8
MRF136A_DRD
 10
3.1433
 20
2.5509
 30
0.0000
  0
VERTEX
  8
MRF136A_DRD
 10
3.1433
 20
2.5583
 30
0.0000
  0
SEQEND
  0
POLYLINE
  8
MRF136A_DRD
 66
1
 10
0.0000
 20
0.0000
 30
0.0000
 40
0.0100
 41
0.0100
  0
VERTEX
  8
MRF136A_DRD
 10
3.1359
 20
2.5435
 30
0.0000
  0
VERTEX
  8
MRF136A_DRD
 10
3.1433
 20
2.5509
 30
0.0000
  0
SEQEND
  0
POLYLINE
  8
MRF136A_DRD
 66
1
 10
0.0000
 20
0.0000
 30
0.0000
 40
0.0100
 41
0.0100
  0
VERTEX
  8
MRF136A_DRD
 10
3.1137
 20
2.5435
 30
0.0000
  0
VERTEX
  8
MRF136A_DRD
 10
3.1359
 20
2.5435
 30
0.0000
  0
SEQEND
  0
POLYLINE
  8
MRF136A_DRD
 66
1
 10
0.0000
 20
0.0000
 30
0.0000
 40
0.0100
 41
0.0100
  0
VERTEX
  8
MRF136A_DRD
 10
3.1174
 20
2.5435
 30
0.0000
  0
VERTEX
  8
MRF136A_DRD
 10
3.1174
 20
2.5879
 30
0.0000
  0
SEQEND
  0
POLYLINE
  8
MRF136A_DRD
 66
1
 10
0.0000
 20
0.0000
 30
0.0000
 40
0.0100
 41
0.0100
  0
VERTEX
  8
MRF136A_DRD
 10
0.3135
 20
2.5250
 30
0.0000
  0
VERTEX
  8
MRF136A_DRD
 10
0.1365
 20
2.5250
 30
0.0000
  0
SEQEND
  0
POLYLINE
  8
MRF136A_DRD
 66
1
 10
0.0000
 20
0.0000
 30
0.0000
 40
0.0100
 41
0.0100
  0
VERTEX
  8
MRF136A_DRD
 10
0.2250
 20
2.6135
 30
0.0000
  0
VERTEX
  8
MRF136A_DRD
 10
0.2250
 20
2.4365
 30
0.0000
  0
SEQEND
  0
POLYLINE
  8
MRF136A_DRD
 66
1
 10
0.0000
 20
0.0000
 30
0.0000
 40
0.0100
 41
0.0100
  0
VERTEX
  8
MRF136A_DRD
 10
0.2609
 20
2.5879
 30
0.0000
  0
VERTEX
  8
MRF136A_DRD
 10
0.2387
 20
2.5879
 30
0.0000
  0
SEQEND
  0
POLYLINE
  8
MRF136A_DRD
 66
1
 10
0.0000
 20
0.0000
 30
0.0000
 40
0.0100
 41
0.0100
  0
VERTEX
  8
MRF136A_DRD
 10
0.2683
 20
2.5805
 30
0.0000
  0
VERTEX
  8
MRF136A_DRD
 10
0.2609
 20
2.5879
 30
0.0000
  0
SEQEND
  0
POLYLINE
  8
MRF136A_DRD
 66
1
 10
0.0000
 20
0.0000
 30
0.0000
 40
0.0100
 41
0.0100
  0
VERTEX
  8
MRF136A_DRD
 10
0.2683
 20
2.5731
 30
0.0000
  0
VERTEX
  8
MRF136A_DRD
 10
0.2683
 20
2.5805
 30
0.0000
  0
SEQEND
  0
POLYLINE
  8
MRF136A_DRD
 66
1
 10
0.0000
 20
0.0000
 30
0.0000
 40
0.0100
 41
0.0100
  0
VERTEX
  8
MRF136A_DRD
 10
0.2646
 20
2.5657
 30
0.0000
  0
VERTEX
  8
MRF136A_DRD
 10
0.2683
 20
2.5731
 30
0.0000
  0
SEQEND
  0
POLYLINE
  8
MRF136A_DRD
 66
1
 10
0.0000
 20
0.0000
 30
0.0000
 40
0.0100
 41
0.0100
  0
VERTEX
  8
MRF136A_DRD
 10
0.2424
 20
2.5657
 30
0.0000
  0
VERTEX
  8
MRF136A_DRD
 10
0.2646
 20
2.5657
 30
0.0000
  0
SEQEND
  0
POLYLINE
  8
MRF136A_DRD
 66
1
 10
0.0000
 20
0.0000
 30
0.0000
 40
0.0100
 41
0.0100
  0
VERTEX
  8
MRF136A_DRD
 10
0.2683
 20
2.5583
 30
0.0000
  0
VERTEX
  8
MRF136A_DRD
 10
0.2646
 20
2.5657
 30
0.0000
  0
SEQEND
  0
POLYLINE
  8
MRF136A_DRD
 66
1
 10
0.0000
 20
0.0000
 30
0.0000
 40
0.0100
 41
0.0100
  0
VERTEX
  8
MRF136A_DRD
 10
0.2683
 20
2.5509
 30
0.0000
  0
VERTEX
  8
MRF136A_DRD
 10
0.2683
 20
2.5583
 30
0.0000
  0
SEQEND
  0
POLYLINE
  8
MRF136A_DRD
 66
1
 10
0.0000
 20
0.0000
 30
0.0000
 40
0.0100
 41
0.0100
  0
VERTEX
  8
MRF136A_DRD
 10
0.2609
 20
2.5435
 30
0.0000
  0
VERTEX
  8
MRF136A_DRD
 10
0.2683
 20
2.5509
 30
0.0000
  0
SEQEND
  0
POLYLINE
  8
MRF136A_DRD
 66
1
 10
0.0000
 20
0.0000
 30
0.0000
 40
0.0100
 41
0.0100
  0
VERTEX
  8
MRF136A_DRD
 10
0.2387
 20
2.5435
 30
0.0000
  0
VERTEX
  8
MRF136A_DRD
 10
0.2609
 20
2.5435
 30
0.0000
  0
SEQEND
  0
POLYLINE
  8
MRF136A_DRD
 66
1
 10
0.0000
 20
0.0000
 30
0.0000
 40
0.0100
 41
0.0100
  0
VERTEX
  8
MRF136A_DRD
 10
0.2424
 20
2.5435
 30
0.0000
  0
VERTEX
  8
MRF136A_DRD
 10
0.2424
 20
2.5879
 30
0.0000
  0
SEQEND
  0
POLYLINE
  8
MRF136A_DRD
 66
1
 10
0.0000
 20
0.0000
 30
0.0000
 40
0.0100
 41
0.0100
  0
VERTEX
  8
MRF136A_DRD
 10
0.3135
 20
0.2250
 30
0.0000
  0
VERTEX
  8
MRF136A_DRD
 10
0.1365
 20
0.2250
 30
0.0000
  0
SEQEND
  0
POLYLINE
  8
MRF136A_DRD
 66
1
 10
0.0000
 20
0.0000
 30
0.0000
 40
0.0100
 41
0.0100
  0
VERTEX
  8
MRF136A_DRD
 10
0.2250
 20
0.3135
 30
0.0000
  0
VERTEX
  8
MRF136A_DRD
 10
0.2250
 20
0.1365
 30
0.0000
  0
SEQEND
  0
POLYLINE
  8
MRF136A_DRD
 66
1
 10
0.0000
 20
0.0000
 30
0.0000
 40
0.0100
 41
0.0100
  0
VERTEX
  8
MRF136A_DRD
 10
0.2609
 20
0.2879
 30
0.0000
  0
VERTEX
  8
MRF136A_DRD
 10
0.2387
 20
0.2879
 30
0.0000
  0
SEQEND
  0
POLYLINE
  8
MRF136A_DRD
 66
1
 10
0.0000
 20
0.0000
 30
0.0000
 40
0.0100
 41
0.0100
  0
VERTEX
  8
MRF136A_DRD
 10
0.2683
 20
0.2805
 30
0.0000
  0
VERTEX
  8
MRF136A_DRD
 10
0.2609
 20
0.2879
 30
0.0000
  0
SEQEND
  0
POLYLINE
  8
MRF136A_DRD
 66
1
 10
0.0000
 20
0.0000
 30
0.0000
 40
0.0100
 41
0.0100
  0
VERTEX
  8
MRF136A_DRD
 10
0.2683
 20
0.2731
 30
0.0000
  0
VERTEX
  8
MRF136A_DRD
 10
0.2683
 20
0.2805
 30
0.0000
  0
SEQEND
  0
POLYLINE
  8
MRF136A_DRD
 66
1
 10
0.0000
 20
0.0000
 30
0.0000
 40
0.0100
 41
0.0100
  0
VERTEX
  8
MRF136A_DRD
 10
0.2646
 20
0.2657
 30
0.0000
  0
VERTEX
  8
MRF136A_DRD
 10
0.2683
 20
0.2731
 30
0.0000
  0
SEQEND
  0
POLYLINE
  8
MRF136A_DRD
 66
1
 10
0.0000
 20
0.0000
 30
0.0000
 40
0.0100
 41
0.0100
  0
VERTEX
  8
MRF136A_DRD
 10
0.2424
 20
0.2657
 30
0.0000
  0
VERTEX
  8
MRF136A_DRD
 10
0.2646
 20
0.2657
 30
0.0000
  0
SEQEND
  0
POLYLINE
  8
MRF136A_DRD
 66
1
 10
0.0000
 20
0.0000
 30
0.0000
 40
0.0100
 41
0.0100
  0
VERTEX
  8
MRF136A_DRD
 10
0.2683
 20
0.2583
 30
0.0000
  0
VERTEX
  8
MRF136A_DRD
 10
0.2646
 20
0.2657
 30
0.0000
  0
SEQEND
  0
POLYLINE
  8
MRF136A_DRD
 66
1
 10
0.0000
 20
0.0000
 30
0.0000
 40
0.0100
 41
0.0100
  0
VERTEX
  8
MRF136A_DRD
 10
0.2683
 20
0.2509
 30
0.0000
  0
VERTEX
  8
MRF136A_DRD
 10
0.2683
 20
0.2583
 30
0.0000
  0
SEQEND
  0
POLYLINE
  8
MRF136A_DRD
 66
1
 10
0.0000
 20
0.0000
 30
0.0000
 40
0.0100
 41
0.0100
  0
VERTEX
  8
MRF136A_DRD
 10
0.2609
 20
0.2435
 30
0.0000
  0
VERTEX
  8
MRF136A_DRD
 10
0.2683
 20
0.2509
 30
0.0000
  0
SEQEND
  0
POLYLINE
  8
MRF136A_DRD
 66
1
 10
0.0000
 20
0.0000
 30
0.0000
 40
0.0100
 41
0.0100
  0
VERTEX
  8
MRF136A_DRD
 10
0.2387
 20
0.2435
 30
0.0000
  0
VERTEX
  8
MRF136A_DRD
 10
0.2609
 20
0.2435
 30
0.0000
  0
SEQEND
  0
POLYLINE
  8
MRF136A_DRD
 66
1
 10
0.0000
 20
0.0000
 30
0.0000
 40
0.0100
 41
0.0100
  0
VERTEX
  8
MRF136A_DRD
 10
0.2424
 20
0.2435
 30
0.0000
  0
VERTEX
  8
MRF136A_DRD
 10
0.2424
 20
0.2879
 30
0.0000
  0
SEQEND
  0
POLYLINE
  8
MRF136A_DRD
 66
1
 10
0.0000
 20
0.0000
 30
0.0000
 40
0.0100
 41
0.0100
  0
VERTEX
  8
MRF136A_DRD
 10
3.1885
 20
0.2250
 30
0.0000
  0
VERTEX
  8
MRF136A_DRD
 10
3.0115
 20
0.2250
 30
0.0000
  0
SEQEND
  0
POLYLINE
  8
MRF136A_DRD
 66
1
 10
0.0000
 20
0.0000
 30
0.0000
 40
0.0100
 41
0.0100
  0
VERTEX
  8
MRF136A_DRD
 10
3.1000
 20
0.3135
 30
0.0000
  0
VERTEX
  8
MRF136A_DRD
 10
3.1000
 20
0.1365
 30
0.0000
  0
SEQEND
  0
POLYLINE
  8
MRF136A_DRD
 66
1
 10
0.0000
 20
0.0000
 30
0.0000
 40
0.0100
 41
0.0100
  0
VERTEX
  8
MRF136A_DRD
 10
3.1359
 20
0.2879
 30
0.0000
  0
VERTEX
  8
MRF136A_DRD
 10
3.1137
 20
0.2879
 30
0.0000
  0
SEQEND
  0
POLYLINE
  8
MRF136A_DRD
 66
1
 10
0.0000
 20
0.0000
 30
0.0000
 40
0.0100
 41
0.0100
  0
VERTEX
  8
MRF136A_DRD
 10
3.1433
 20
0.2805
 30
0.0000
  0
VERTEX
  8
MRF136A_DRD
 10
3.1359
 20
0.2879
 30
0.0000
  0
SEQEND
  0
POLYLINE
  8
MRF136A_DRD
 66
1
 10
0.0000
 20
0.0000
 30
0.0000
 40
0.0100
 41
0.0100
  0
VERTEX
  8
MRF136A_DRD
 10
3.1433
 20
0.2731
 30
0.0000
  0
VERTEX
  8
MRF136A_DRD
 10
3.1433
 20
0.2805
 30
0.0000
  0
SEQEND
  0
POLYLINE
  8
MRF136A_DRD
 66
1
 10
0.0000
 20
0.0000
 30
0.0000
 40
0.0100
 41
0.0100
  0
VERTEX
  8
MRF136A_DRD
 10
3.1396
 20
0.2657
 30
0.0000
  0
VERTEX
  8
MRF136A_DRD
 10
3.1433
 20
0.2731
 30
0.0000
  0
SEQEND
  0
POLYLINE
  8
MRF136A_DRD
 66
1
 10
0.0000
 20
0.0000
 30
0.0000
 40
0.0100
 41
0.0100
  0
VERTEX
  8
MRF136A_DRD
 10
3.1174
 20
0.2657
 30
0.0000
  0
VERTEX
  8
MRF136A_DRD
 10
3.1396
 20
0.2657
 30
0.0000
  0
SEQEND
  0
POLYLINE
  8
MRF136A_DRD
 66
1
 10
0.0000
 20
0.0000
 30
0.0000
 40
0.0100
 41
0.0100
  0
VERTEX
  8
MRF136A_DRD
 10
3.1433
 20
0.2583
 30
0.0000
  0
VERTEX
  8
MRF136A_DRD
 10
3.1396
 20
0.2657
 30
0.0000
  0
SEQEND
  0
POLYLINE
  8
MRF136A_DRD
 66
1
 10
0.0000
 20
0.0000
 30
0.0000
 40
0.0100
 41
0.0100
  0
VERTEX
  8
MRF136A_DRD
 10
3.1433
 20
0.2509
 30
0.0000
  0
VERTEX
  8
MRF136A_DRD
 10
3.1433
 20
0.2583
 30
0.0000
  0
SEQEND
  0
POLYLINE
  8
MRF136A_DRD
 66
1
 10
0.0000
 20
0.0000
 30
0.0000
 40
0.0100
 41
0.0100
  0
VERTEX
  8
MRF136A_DRD
 10
3.1359
 20
0.2435
 30
0.0000
  0
VERTEX
  8
MRF136A_DRD
 10
3.1433
 20
0.2509
 30
0.0000
  0
SEQEND
  0
POLYLINE
  8
MRF136A_DRD
 66
1
 10
0.0000
 20
0.0000
 30
0.0000
 40
0.0100
 41
0.0100
  0
VERTEX
  8
MRF136A_DRD
 10
3.1137
 20
0.2435
 30
0.0000
  0
VERTEX
  8
MRF136A_DRD
 10
3.1359
 20
0.2435
 30
0.0000
  0
SEQEND
  0
POLYLINE
  8
MRF136A_DRD
 66
1
 10
0.0000
 20
0.0000
 30
0.0000
 40
0.0100
 41
0.0100
  0
VERTEX
  8
MRF136A_DRD
 10
3.1174
 20
0.2435
 30
0.0000
  0
VERTEX
  8
MRF136A_DRD
 10
3.1174
 20
0.2879
 30
0.0000
  0
SEQEND
  0
TEXT
  8
MRF136A_DRD
 10
0.2295
 20
-1.4590
 30
0.0000
 40
0.0492187
 41
1.0000
 51
0.0000
 71
0
  1
4-40 drill & Tap
 50
0.0000
  7
STYLE_2
  0
TEXT
  8
MRF136A_DRD
 10
2.4290
 20
-1.4567
 30
0.0000
 40
0.0492187
 41
1.0000
 51
0.0000
 71
0
  1
Drill & Tap for 4-40 Screw
 50
0.0000
  7
STYLE_2
  0
TEXT
  8
MRF136A_DRD
 10
0.2159
 20
-1.1599
 30
0.0000
 40
0.0492187
 41
1.0000
 51
0.0000
 71
0
  1
0.125 inch drill
 50
0.0000
  7
STYLE_2
  0
TEXT
  8
MRF136A_DRD
 10
2.4109
 20
-1.1576
 30
0.0000
 40
0.0492187
 41
1.0000
 51
0.0000
 71
0
  1
Drill hole 0.125 in diameter
 50
0.0000
  7
STYLE_2
  0
TEXT
  8
MRF136A_DRD
 10
2.4222
 20
-1.3025
 30
0.0000
 40
0.0492187
 41
1.0000
 51
0.0000
 71
0
  1
Drill hole .177 in diameter
 50
0.0000
  7
STYLE_2
  0
TEXT
  8
MRF136A_DRD
 10
1.0812
 20
-1.3116
 30
0.0000
 40
0.0492187
 41
1.0000
 51
0.0000
 71
0
  1
+/- .005 inch
 50
0.0000
  7
STYLE_2
  0
TEXT
  8
MRF136A_DRD
 10
3.6965
 20
-1.3017
 30
0.0000
 40
0.0492187
 41
1.0000
 51
0.0000
 71
0
  1
Broadcast Concepts Inc
 50
0.0000
  7
STYLE_2
  0
TEXT
  8
MRF136A_DRD
 10
3.6965
 20
-1.4267
 30
0.0000
 40
0.0492187
 41
1.0000
 51
0.0000
 71
0
  1
9737 NW 41st Street #527
 50
0.0000
  7
STYLE_2
  0
TEXT
  8
MRF136A_DRD
 10
3.6965
 20
-1.5517
 30
0.0000
 40
0.0492187
 41
1.0000
 51
0.0000
 71
0
  1
Miami FL 33178
 50
0.0000
  7
STYLE_2
  0
TEXT
  8
MRF136A_DRD
 10
1.6972
 20
4.2611
 30
0.0000
 40
0.0492187
 41
1.0000
 51
0.0000
 71
0
  1
 Heat Sink Plate
 50
0.0000
  7
STYLE_2
  0
TEXT
  8
MRF136A_DRD
 10
1.3222
 20
4.1611
 30
0.0000
 40
0.0492187
 41
1.0000
 51
0.0000
 71
0
  1
PN MRF135
 50
0.0000
  7
STYLE_2
  0
TEXT
  8
MRF136A_DRD
 10
0.3000
 20
0.1500
 30
0.0000
 40
0.0492187
 41
1.0000
 51
0.0000
 71
0
  1
(.225,.225)
 50
0.0000
  7
STYLE_2
  0
TEXT
  8
MRF136A_DRD
 10
0.0736
 20
2.6792
 30
0.0000
 40
0.0492187
 41
1.0000
 51
0.0000
 71
0
  1
(.225,2.525)
 50
0.0000
  7
STYLE_2
  0
TEXT
  8
MRF136A_DRD
 10
2.8000
 20
2.3500
 30
0.0000
 40
0.0492187
 41
1.0000
 51
0.0000
 71
0
  1
(3.100,2.525)
 50
0.0000
  7
STYLE_2
  0
TEXT
  8
MRF136A_DRD
 10
2.5446
 20
0.0994
 30
0.0000
 40
0.0492187
 41
1.0000
 51
0.0000
 71
0
  1
(3.100, .225)
 50
0.0000
  7
STYLE_2
  0
POLYLINE
  8
MRF136A_DRD
 66
1
 10
0.0000
 20
0.0000
 30
0.0000
 40
0.0080
 41
0.0080
  0
VERTEX
  8
MRF136A_DRD
 10
-0.0500
 20
-0.0500
 30
0.0000
  0
VERTEX
  8
MRF136A_DRD
 10
0.0500
 20
0.0500
 30
0.0000
  0
SEQEND
  0
POLYLINE
  8
MRF136A_DRD
 66
1
 10
0.0000
 20
0.0000
 30
0.0000
 40
0.0080
 41
0.0080
  0
VERTEX
  8
MRF136A_DRD
 10
-0.0500
 20
0.0500
 30
0.0000
  0
VERTEX
  8
MRF136A_DRD
 10
0.0500
 20
-0.0500
 30
0.0000
  0
SEQEND
  0
TEXT
  8
MRF136A_DRD
 10
0.0592
 20
-0.0158
 30
0.0000
 40
0.0492187
 41
1.0000
 51
0.0000
 71
0
  1
(0,0) origin
 50
0.0000
  7
STYLE_2
  0
TEXT
  8
MRF136A_DRD
 10
1.3222
 20
4.2611
 30
0.0000
 40
0.0492187
 41
1.0000
 51
0.0000
 71
0
  1
Aluminum
 50
0.0000
  7
STYLE_2
  0
POLYLINE
  8
MRF136A_DRD
 66
1
 10
0.0000
 20
0.0000
 30
0.0000
 40
0.0080
 41
0.0080
  0
VERTEX
  8
MRF136A_DRD
 10
0.0500
 20
3.8000
 30
0.0000
  0
VERTEX
  8
MRF136A_DRD
 10
3.3750
 20
3.8000
 30
0.0000
  0
VERTEX
  8
MRF136A_DRD
 10
4.6250
 20
5.0500
 30
0.0000
  0
SEQEND
  0
POLYLINE
  8
MRF136A_DRD
 66
1
 10
0.0000
 20
0.0000
 30
0.0000
 40
0.0080
 41
0.0080
  0
VERTEX
  8
MRF136A_DRD
 10
0.0250
 20
3.8000
 30
0.0000
  0
VERTEX
  8
MRF136A_DRD
 10
1.4250
 20
5.2000
 30
0.0000
  0
VERTEX
  8
MRF136A_DRD
 10
4.7750
 20
5.2000
 30
0.0000
  0
SEQEND
  0
POLYLINE
  8
MRF136A_DRD
 66
1
 10
0.0000
 20
0.0000
 30
0.0000
 40
0.0080
 41
0.0080
  0
VERTEX
  8
MRF136A_DRD
 10
4.7750
 20
5.2000
 30
0.0000
  0
VERTEX
  8
MRF136A_DRD
 10
4.6250
 20
5.0500
 30
0.0000
  0
SEQEND
  0
POLYLINE
  8
MRF136A_DRD
 66
1
 10
0.0000
 20
0.0000
 30
0.0000
 40
0.0080
 41
0.0080
  0
VERTEX
  8
MRF136A_DRD
 10
0.0500
 20
3.8000
 30
0.0000
  0
VERTEX
  8
MRF136A_DRD
 10
0.0250
 20
3.8000
 30
0.0000
  0
SEQEND
  0
POLYLINE
  8
MRF136A_DRD
 66
1
 10
0.0000
 20
0.0000
 30
0.0000
 40
0.0080
 41
0.0080
  0
VERTEX
  8
MRF136A_DRD
 10
4.7750
 20
5.2000
 30
0.0000
  0
VERTEX
  8
MRF136A_DRD
 10
4.7750
 20
4.9500
 30
0.0000
  0
SEQEND
  0
POLYLINE
  8
MRF136A_DRD
 66
1
 10
0.0000
 20
0.0000
 30
0.0000
 40
0.0080
 41
0.0080
  0
VERTEX
  8
MRF136A_DRD
 10
3.3750
 20
3.8000
 30
0.0000
  0
VERTEX
  8
MRF136A_DRD
 10
3.3750
 20
3.5500
 30
0.0000
  0
VERTEX
  8
MRF136A_DRD
 10
4.7750
 20
4.9500
 30
0.0000
  0
SEQEND
  0
POLYLINE
  8
MRF136A_DRD
 66
1
 10
0.0000
 20
0.0000
 30
0.0000
 40
0.0080
 41
0.0080
  0
VERTEX
  8
MRF136A_DRD
 10
0.0250
 20
3.8000
 30
0.0000
  0
VERTEX
  8
MRF136A_DRD
 10
0.0250
 20
3.5500
 30
0.0000
  0
VERTEX
  8
MRF136A_DRD
 10
3.3750
 20
3.5500
 30
0.0000
  0
SEQEND
  0
TEXT
  8
MRF136A_DRD
 10
2.0250
 20
3.6500
 30
0.0000
 40
0.0492187
 41
1.0000
 51
0.0000
 71
0
  1
0.250
 50
0.0000
  7
STYLE_2
  0
POLYLINE
  8
MRF136A_DRD
 66
1
 10
0.0000
 20
0.0000
 30
0.0000
 40
0.0080
 41
0.0080
  0
VERTEX
  8
MRF136A_DRD
 10
2.1000
 20
3.7250
 30
0.0000
  0
VERTEX
  8
MRF136A_DRD
 10
2.1000
 20
3.7750
 30
0.0000
  0
VERTEX
  8
MRF136A_DRD
 10
2.0750
 20
3.7500
 30
0.0000
  0
SEQEND
  0
POLYLINE
  8
MRF136A_DRD
 66
1
 10
0.0000
 20
0.0000
 30
0.0000
 40
0.0080
 41
0.0080
  0
VERTEX
  8
MRF136A_DRD
 10
2.1000
 20
3.7750
 30
0.0000
  0
VERTEX
  8
MRF136A_DRD
 10
2.1250
 20
3.7500
 30
0.0000
  0
SEQEND
  0
POLYLINE
  8
MRF136A_DRD
 66
1
 10
0.0000
 20
0.0000
 30
0.0000
 40
0.0080
 41
0.0080
  0
VERTEX
  8
MRF136A_DRD
 10
2.1000
 20
3.6250
 30
0.0000
  0
VERTEX
  8
MRF136A_DRD
 10
2.1000
 20
3.5750
 30
0.0000
  0
VERTEX
  8
MRF136A_DRD
 10
2.0750
 20
3.6000
 30
0.0000
  0
VERTEX
  8
MRF136A_DRD
 10
2.1000
 20
3.5750
 30
0.0000
  0
VERTEX
  8
MRF136A_DRD
 10
2.1250
 20
3.6000
 30
0.0000
  0
SEQEND
  0
TEXT
  8
MRF136A_DRD
 10
1.5000
 20
4.6500
 30
0.0000
 40
0.065625
 41
1.0000
 51
0.0000
 71
0
  1
Heat Sink Plate 1/4 in aluminum
 50
0.0000
  7
STYLE_3
  0
TEXT
  8
MRF136A_DRD
 10
3.7193
 20
2.1358
 30
0.0000
 40
0.065625
 41
1.0000
 51
0.0000
 71
0
  1
All Dimensions are in inches
 50
0.0000
  7
STYLE_3
  0
POLYLINE
  8
MRF136A_DRD
 66
1
 10
0.0000
 20
0.0000
 30
0.0000
 40
0.0100
 41
0.0100
  0
VERTEX
  8
MRF136A_DRD
 10
0.0000
 20
2.7500
 30
0.0000
  0
VERTEX
  8
MRF136A_DRD
 10
0.0000
 20
2.8750
 30
0.0000
  0
SEQEND
  0
POLYLINE
  8
MRF136A_DRD
 66
1
 10
0.0000
 20
0.0000
 30
0.0000
 40
0.0100
 41
0.0100
  0
VERTEX
  8
MRF136A_DRD
 10
0.0000
 20
2.8750
 30
0.0000
  0
VERTEX
  8
MRF136A_DRD
 10
3.3250
 20
2.8750
 30
0.0000
  0
VERTEX
  8
MRF136A_DRD
 10
3.3250
 20
2.7500
 30
0.0000
  0
SEQEND
  0
POLYLINE
  8
MRF136A_DRD
 66
1
 10
0.0000
 20
0.0000
 30
0.0000
 40
0.0100
 41
0.0100
  0
VERTEX
  8
MRF136A_DRD
 10
0.0000
 20
0.0000
 30
0.0000
  0
VERTEX
  8
MRF136A_DRD
 10
0.0000
 20
-0.1250
 30
0.0000
  0
VERTEX
  8
MRF136A_DRD
 10
3.3250
 20
-0.1250
 30
0.0000
  0
VERTEX
  8
MRF136A_DRD
 10
3.3250
 20
0.0000
 30
0.0000
  0
SEQEND
  0
POLYLINE
  8
MRF136A_DRD
 66
1
 10
0.0000
 20
0.0000
 30
0.0000
 40
0.0100
 41
0.0100
  0
VERTEX
  8
MRF136A_DRD
 10
0.0000
 20
2.7750
 30
0.0000
  0
VERTEX
  8
MRF136A_DRD
 10
0.0000
 20
-0.0500
 30
0.0000
  0
SEQEND
  0
POLYLINE
  8
MRF136A_DRD
 66
1
 10
0.0000
 20
0.0000
 30
0.0000
 40
0.0100
 41
0.0100
  0
VERTEX
  8
MRF136A_DRD
 10
3.3250
 20
2.7750
 30
0.0000
  0
VERTEX
  8
MRF136A_DRD
 10
3.3250
 20
-0.0500
 30
0.0000
  0
SEQEND
  0
TEXT
  8
MRF136A_DRD
 10
-0.3247
 20
1.3363
 30
0.0000
 40
0.0492187
 41
1.0000
 51
0.0000
 71
0
  1
3.0
 50
270.0000
  7
STYLE_1
  0
POLYLINE
  8
MRF136A_DRD
 66
1
 10
0.0000
 20
0.0000
 30
0.0000
 40
0.0100
 41
0.0100
  0
VERTEX
  8
MRF136A_DRD
 10
-0.3000
 20
1.6750
 30
0.0000
  0
VERTEX
  8
MRF136A_DRD
 10
-0.3000
 20
1.4000
 30
0.0000
  0
SEQEND
  0
POLYLINE
  8
MRF136A_DRD
 66
1
 10
0.0000
 20
0.0000
 30
0.0000
 40
0.0100
 41
0.0100
  0
VERTEX
  8
MRF136A_DRD
 10
-0.3000
 20
1.1000
 30
0.0000
  0
VERTEX
  8
MRF136A_DRD
 10
-0.3000
 20
1.1634
 30
0.0000
  0
SEQEND
  0
POLYLINE
  8
MRF136A_DRD
 66
1
 10
0.0000
 20
0.0000
 30
0.0000
 40
0.0100
 41
0.0100
  0
VERTEX
  8
MRF136A_DRD
 10
0.0500
 20
0.0000
 30
0.0000
  0
VERTEX
  8
MRF136A_DRD
 10
0.0000
 20
0.0000
 30
0.0000
  0
SEQEND
  0
TEXT
  8
MRF136A_DRD
 10
3.5750
 20
2.8281
 30
0.0000
 40
0.0492187
 41
1.0000
 51
0.0000
 71
0
  1
Notes:
 50
0.0000
  7
STYLE_2
  0
TEXT
  8
MRF136A_DRD
 10
3.5750
 20
2.7031
 30
0.0000
 40
0.0492187
 41
1.0000
 51
0.0000
 71
0
  1
(1) (x,y) position of all drill holes are referenced
 50
0.0000
  7
STYLE_2
  0
TEXT
  8
MRF136A_DRD
 10
3.7500
 20
2.5972
 30
0.0000
 40
0.0492187
 41
1.0000
 51
0.0000
 71
0
  1
to origin.
 50
0.0000
  7
STYLE_2
  0
TEXT
  8
MRF136A_DRD
 10
3.5704
 20
2.4837
 30
0.0000
 40
0.0492187
 41
1.0000
 51
0.0000
 71
0
  1
(2)
 50
0.0000
  7
STYLE_2
  0
TEXT
  8
MRF136A_DRD
 10
3.7065
 20
2.4762
 30
0.0000
 40
0.0492187
 41
1.0000
 51
0.0000
 71
0
  1
caution!!!!. Origin shown in this drawing is not 
 50
0.0000
  7
STYLE_2
  0
TEXT
  8
MRF136A_DRD
 10
3.7065
 20
2.3512
 30
0.0000
 40
0.0492187
 41
1.0000
 51
0.0000
 71
0
  1
at the corner of the plate. 
 50
0.0000
  7
STYLE_2
  0
TEXT
  8
MRF136A_DRD
 10
4.7479
 20
2.3602
 30
0.0000
 40
0.0492187
 41
1.0000
 51
0.0000
 71
0
  1
(X,Y) of lower left
 50
0.0000
  7
STYLE_2
  0
TEXT
  8
MRF136A_DRD
 10
3.7166
 20
2.2669
 30
0.0000
 40
0.0492187
 41
1.0000
 51
0.0000
 71
0
  1
Corner is (0, -.125)
 50
0.0000
  7
STYLE_2
  0
TEXT
  8
MRF136A_DRD
 10
4.1125
 20
2.6073
 30
0.0000
 40
0.0492187
 41
1.0000
 51
0.0000
 71
0
  1
(0,0)
 50
0.0000
  7
STYLE_2
  0
TEXT
  8
MRF136A_DRD
 10
3.5781
 20
2.1358
 30
0.0000
 40
0.0492187
 41
1.0000
 51
0.0000
 71
0
  1
(3)
 50
0.0000
  7
STYLE_2
  0
TEXT
  8
MRF136A_DRD
 10
0.0532
 20
3.1668
 30
0.0000
 40
0.1640624
 41
1.0000
 51
0.0000
 71
0
  1
Please Read All Notes
 50
0.0000
  7
STYLE_0
  0
TEXT
  8
MRF136A_DRD
 10
3.5710
 20
1.9950
 30
0.0000
 40
0.0492187
 41
1.0000
 51
0.0000
 71
0
  1
(4) Use 3 inch wide by 1/4 inch thick bar stock
 50
0.0000
  7
STYLE_2
  0
TEXT
  8
MRF136A_DRD
 10
3.5642
 20
1.8710
 30
0.0000
 40
0.0492187
 41
1.0000
 51
0.0000
 71
0
  1
(5) All drill locations shall be +/_ .005 inch or better
 50
0.0000
  7
STYLE_2
  0
TEXT
  8
MRF136A_DRD
 10
3.5610
 20
1.7480
 30
0.0000
 40
0.0492187
 41
1.0000
 51
0.0000
 71
0
  1
(6) This drawing is to scale when viewed in DXF format.
 50
0.0000
  7
STYLE_2
  0
TEXT
  8
MRF136A_DRD
 10
0.5450
 20
-1.3162
 30
0.0000
 40
0.0492187
 41
1.0000
 51
0.0000
 71
0
  1
Drill
 50
0.0000
  7
STYLE_2
  0
TEXT
  8
MRF136A_DRD
 10
1.5508
 20
-0.3983
 30
0.0000
 40
0.0492187
 41
1.0000
 51
0.0000
 71
0
  1
3.325
 50
0.0000
  7
STYLE_2
  0
POLYLINE
  8
MRF136A_DRD
 66
1
 10
0.0000
 20
0.0000
 30
0.0000
 40
0.0100
 41
0.0100
  0
VERTEX
  8
MRF136A_DRD
 10
-0.1875
 20
-0.5215
 30
0.0000
  0
VERTEX
  8
MRF136A_DRD
 10
-0.1875
 20
-1.8738
 30
0.0000
  0
SEQEND
  0
POLYLINE
  8
MRF136A_DRD
 66
1
 10
0.0000
 20
0.0000
 30
0.0000
 40
0.0100
 41
0.0100
  0
VERTEX
  8
MRF136A_DRD
 10
3.5401
 20
-0.5206
 30
0.0000
  0
VERTEX
  8
MRF136A_DRD
 10
3.5401
 20
-1.8737
 30
0.0000
  0
SEQEND
  0
POLYLINE
  8
MRF136A_DRD
 66
1
 10
0.0000
 20
0.0000
 30
0.0000
 40
0.0100
 41
0.0100
  0
VERTEX
  8
MRF136A_DRD
 10
2.3470
 20
-0.5214
 30
0.0000
  0
VERTEX
  8
MRF136A_DRD
 10
2.3470
 20
-1.8729
 30
0.0000
  0
SEQEND
  0
POLYLINE
  8
MRF136A_DRD
 66
1
 10
0.0000
 20
0.0000
 30
0.0000
 40
0.0100
 41
0.0100
  0
VERTEX
  8
MRF136A_DRD
 10
1.8448
 20
-0.7190
 30
0.0000
  0
VERTEX
  8
MRF136A_DRD
 10
1.8448
 20
-1.8738
 30
0.0000
  0
SEQEND
  0
POLYLINE
  8
MRF136A_DRD
 66
1
 10
0.0000
 20
0.0000
 30
0.0000
 40
0.0100
 41
0.0100
  0
VERTEX
  8
MRF136A_DRD
 10
0.1808
 20
-0.7214
 30
0.0000
  0
VERTEX
  8
MRF136A_DRD
 10
0.1808
 20
-1.8745
 30
0.0000
  0
SEQEND
  0
TEXT
  8
MRF136A_DRD
 10
-0.1524
 20
-0.8488
 30
0.0000
 40
0.0492187
 41
1.0000
 51
0.0000
 71
0
  1
Symbol
 50
0.0000
  7
STYLE_2
  0
POLYLINE
  8
MRF136A_DRD
 66
1
 10
0.0000
 20
0.0000
 30
0.0000
 40
0.0100
 41
0.0100
  0
VERTEX
  8
MRF136A_DRD
 10
0.9844
 20
-0.9207
 30
0.0000
  0
VERTEX
  8
MRF136A_DRD
 10
0.9844
 20
-1.8738
 30
0.0000
  0
SEQEND
  0
TEXT
  8
MRF136A_DRD
 10
1.2332
 20
2.6760
 30
0.0000
 40
0.1148437
 41
1.0000
 51
0.0000
 71
0
  1
Top View
 50
0.0000
  7
STYLE_4
  0
ENDSEC
  0
EOF
